Song name
# A B C D E F G H I J K L M N O P Q R S T U V W X Y Z

Michael Jackson - Ill Be There tab

-------------------------------------------------------------------------------
			 I'll Be There - Michael Jackson
-------------------------------------------------------------------------------
Tabbed by:Axl
Tuning: Standard

This is a tab for the verses of the song.

e|-----0-1-0---1-3--------------------------------0-----------------------1-0|
B|-1-------------------3-3--------1-----1-3-1---3-------1-1-0-----------1----|
G|---0-------------0---------0----2---2-------2-------0-------2-----2-2------|
D|---------2---------0-----0---0----2---------------2---------3---3----------|
A|-3-------------------0-0--------0-------0-------2-----------3-3------------|
E|---------------3-----------------------------------------------------------|
  
e|---------------------------------------------------------------------------|
B|---1-1---------------------------------------------------------------------|
G|-2-------------------------------------------------------------------------|
D|-3-------------------------------------------------------------------------|
A|-3-3-3---------------------------------------------------------------------|
E|-1-------------------------------------------------------------------------|

===============================================================================
Tap to rate this tab
# A B C D E F G H I J K L M N O P Q R S T U V W X Y Z