Song name
# A B C D E F G H I J K L M N O P Q R S T U V W X Y Z

Michael Jackson - Man In The Mirror tab

Hey This is The Way I Play Man In The Mirror, My 1st Time Tabbing Though.
listen to the song and youll get the tempo right.
Ive Put the chords Above the Tab also if you just want To Strum along
to the song...

                       Intro

E|-------7-----7-----7--------------------------------|
B|----9--7--7--7--5--7--4-5----2--2----2---2--2----2--|
G|----9-----8-----6-----4------2--2---2----2--2---2---|
D|-----------------------------2--2--2-----2--2--2----|
A|----------------------------0--0--------0--0--------|
E|----------------------------------------------------|

                             Verse(s)
      E       G#m      C#m        B        A
E|------------------------------------------------------------------|
B|-----------------------5--------4-------2--2----2------2--2----2--|
G|----------------------6--------4--------2--2---2-------2--2---2---|  Play
D|-----2--------6------6--6-----4--4------2--2--2--------2--2--2----|   4
A|----2--------6-------------------------0--0-----------0--0--------| Times
E|---0--0-----4--4--------------------------------------------------|

                             Bridge
          F#m                G#m         A        B
E|--------------------------------------------------------|
B|------------------------------------2--2-----4--4-4-4---|
G|-----------------------------------2--2------4--4-4-4---|   Play
D|------4--4--4--------6--6--6------2--2------4--4-4-4-4--|   Twice
A|-----4--4-----------6--6--------------------------------|
E|----2--2--2--------4--4--4------------------------------|

                             Chorus
       E      G#m     A    B

E|-----------------------------------|
B|--------------------2----4----4----|
G|------1------4------2----4----4----|   Play
D|-----2------6-------2----4----4----|   3 times
A|----2--2---6--6----0----2----2--2--|
E|-----------------------------------|

At the part where Jackson Sings:

" If you wanna make the world a better place,
  Take a look at yourself, and then make a change..."

Just Alternate Pick B Major Like This:
E|--------------------------|
B|----4-4-4-4-4-4-4...------|
G|----4-4-4-4-4-4-4...------|
D|----4-4-4-4-4-4-4...------|
A|---2-2-2-2-2-2-2-...------|
E|--------------------------|

Song Structure :

Intro
Verse
Bridge Chorus
Verse
Bridge
Chorus x3
Outro

Any Questions Email or add me on MSN with danny_r_mcardle@hotmail.com
Enjoy man !!
Tap to rate this tab
# A B C D E F G H I J K L M N O P Q R S T U V W X Y Z