Song name
# A B C D E F G H I J K L M N O P Q R S T U V W X Y Z

Michael Jackson - State Of Shock tab

Michael Jackson - State of Shock
Tabbed by jdcx95

This is State of Shock by Michael Jackson.  Not much on the guitar, but here's the most 
tab at the moment for it.  Theres a third guitar at the end that I don't want to bother 
out right now, maybe I will eventually.  Oh well.  Enjoy :D

NOTE: In the verse, not all the guitars are always played together.  Guitar 1 and 2 will 
be together, but Guitar 3 is not always.  You'll just have to listen and figure out 
it comes in.

Guitars:
Guitar 1 - Heavy Distortion - Standard Tuning (EADGBE)
Guitar 2 - Heavy Distortion - Standard Tuning (EADGBE)
Guitar 3 - Heavy Distortion - Standard Tuning (EADGBE)

:::::::::::::::::::::::::::::::::::::::::::::::::::::::::::::::::::::::::::::
Verse
:::::::::::::::::::::::::::::::::::::::::::::::::::::::::::::::::::::::::::::

Guitar 1

E|----------------------------------------------------------|
B|----------------------------------------------------------|
G|----------------------------------------------------------|
D|---6---4--4h6-------------1-------4---4h6-------------1---|
A|-----6---------2-4--4-2-4-------6---6------2-4--4-2-4-----|
E|----------------------------------------------------------|

Guitar 2

E|----------------------------------------------------------|
B|----------------------------------------------------------|
G|----------------------------------------------------------|
D|---------------1-3--3-1-3-1----------------1-3--3-1-3-1---|
A|----------------------------------------------------------|
E|----------------------------------------------------------|

Guitar 3

E|--------------|
B|--------------|
G|--------------|
D|-----6-6--6---|
A|-----6-6--6---|
E|-----4-4--4---|

:::::::::::::::::::::::::::::::::::::::::::::::::::::::::::::::::::::::::::::
Chorus
:::::::::::::::::::::::::::::::::::::::::::::::::::::::::::::::::::::::::::::

E|----------------------------------|
B|----------------------------------|
G|---6-6--6--6-6--6---8-8--8--8-8---|
D|---6-6--6--6-6--6---8-8--8--8-8---|
A|---4-4--4--4-4--4---6-6--6--6-6---|
E|----------------------------------|

(I don't think a legend or song structure is needed, both are straight forward if you 
read tabs and listen to the song.)
Tap to rate this tab
 
# A B C D E F G H I J K L M N O P Q R S T U V W X Y Z