Song name
# A B C D E F G H I J K L M N O P Q R S T U V W X Y Z

Michael Jackson - Smooth Criminal tab

e----------------------------------------|
b----------------------------------------|
g----------------------------------------| repeat as many times as you like
d----------------------------------------|
a-0-0-0-0---0-2-2---0-2-3-3---2-3-2---0--|
E---------3-------------------------3----|

e-------------------------------------|
b-------------------------------------|
g-------------------------------------|
d-------------------------------------|
a-3-3-3-3--3-3-3-3--3-3-3-3--5-5------|
E-1-1-1-1--1-1-1-1--1-1-1-1--3-3------|

  E
e-0---------0----|
b-0---------2----|
g-1---------2----| then go back up to power chords and  repeat
d-2---------2----|
a-2---------0----|
E-0---3-0-3-0----|
Tap to rate this tab
 
# A B C D E F G H I J K L M N O P Q R S T U V W X Y Z