Song name
# A B C D E F G H I J K L M N O P Q R S T U V W X Y Z

Michael Jackson - The Way You Make Me Feel tab

"My preference is Capo 7th, but it sounds good elsewhere"

This is the way play it, the whole song revolves around these two patterns, listen to
song and it is simple to figure out the arrangement. I tabbed this because the tabs that
around sounded too low, I think this is the best one, especially for acoustic guitars. I 
tabbed my arrangement with the bass note played before the whole chord, this is my
way of playing it.

     A   A/G   A   A/G   A   A/G   A   A/G
e|----------------------------------------|
B|---2----0----2----0----2----0----2----0-|
G|---2----0----2----0----2----0----2----0-|
D|---2----0----2----0----2----0----2----0-|
A|-0----0----0----0----0----0----0----0---|
E|----------------------------------------|
     D     C     D     C     D     C     D     C
e|---2-----------2-----------2-----------2-------|
B|---3-----1-----3-----1-----3-----1-----3-----1-|
G|---2-----2-----2-----2-----2-----2-----2-----2-|
D|-0-------0---0-------0---0-------0---0-------0-|
A|------3-----------3------------3------------3--|
E|-----------------------------------------------|

Tabbed by Jack Rowley:

Lyrics:-

[Verse 1]
Hey pretty baby with the high heels on
You give me fever like Ive never, ever known
Youre just a product of loveliness
I like the groove of your walk, your talk, your dress

[Pre Chorus]
I feel your fever
From miles around
Ill pick you up in my car and well paint the town
Just kiss me baby and tell me twice
That youre the one for me

[Chorus]
The way you make me feel
You really turn me on
You knock me off of my feet
My lonely days are gone

[Verse 2]
I like the feelin you're givin me
Just hold me baby and im in ecstasy
Oh Ill be workin from nine to five
To buy you things to keep you by my side

[Pre Chorus]
I never felt so in love before
Just promise baby, youll love me forevermore
I swear Im keepin you satisfied
cause youre the one for me

[Chorus]
The way you make me feel
You really turn me on
You knock me off of my feet
My lonely days are gone
Tap to rate this tab
 
# A B C D E F G H I J K L M N O P Q R S T U V W X Y Z