Song name
# A B C D E F G H I J K L M N O P Q R S T U V W X Y Z

Michael Jackson - Dirty Diana tab

Dirty Diana - Michael Jackson

this is the solo tab for michael jacksons dirty diana
with steve stevens on guitar i believe

Standard Tuning

W = Whammy bar

e---------13--13/---------------------------------------|
b---------13--13/---------------------------------------|
g-0-0-0-0---------0-0-0-0-3-0-5-0-3-0-5-0-3-0-----------|
d---------------------------------------------5-3-------|
a-------------------------------------------------5-3---|
e-----------------------------------------------------6-|

e--------13--13/---------13-13-13/-------------13-13-13/-|
b--------13--13/---------13-13-13/-------------13-13-13/-|
g-0-0-0-0--------0-0-0-0-----------0-0-0-0-0-0-----------|
d--------------------------------------------------------|
a--------------------------------------------------------|
e--------------------------------------------------------|

e---------13--13/---------13-13/-------------18W----18---|
b---------13--13/---------13-13/-----------------18------|
g-0-0-0-0---------0-0-0-0--------0-0-0-0-0-0-------------|
d--------------------------------------------------------|
a--------------------------------------------------------|
e--------------------------------------------------------|

e--------------------------------------------------------------|
b-18-----------------------------------------------------------|
g----17W-15~----17W-15----17W-15----17W-15----17W-15---17B(19)-|
d------------17--------17--------17--------17--------17--------|
a--------------------------------------------------------------|
e--------------------------------------------------------------|

e-18~-----20------20----20------20------20----------20B(22)----|
b-----15/---181718--1817--181718--181718--1817181718-----------|
g--------------------------------------------------------------|
d--------------------------------------------------------------|
a--------------------------------------------------------------|
e--------------------------------------------------------------|
Tap to rate this tab
# A B C D E F G H I J K L M N O P Q R S T U V W X Y Z