Song name
# A B C D E F G H I J K L M N O P Q R S T U V W X Y Z

Michael Jackson - Rock With You tab

e|---------------3/5--------------------------------|
B|------------3-------7--------5---7----------------|
G|---2---2/4-----------7-------6---5----------------|
D|-----------------------------7---7----------------|
A|--------------------------------------------------|
E|--------------------------------------------------|

e|---5----------------------------------------------|
B|-----5/7--------5--8------------------------------|
G|---------7------6--9------------------------------|
D|-----------9----7--10-----------------------------|
A|--------------------------------------------------|
E|--------------------------------------------------|

e|---------------3/5--------------------------------|
B|------------3-------7--------5---7----------------|
G|---2---2/4-----------7-------6---5----------------|
D|-----------------------------7---7----------------|
A|--------------------------------------------------|
E|--------------------------------------------------|

e|--------7-5------5---5----------------------------|
B|-----5-7---------3---3----------------------------|
G|---7-------------4---4----------------------------|
D|-----------------5---5----------------------------|
A|--------------------------------------------------|
E|--------------------------------------------------|
Tap to rate this tab
 
# A B C D E F G H I J K L M N O P Q R S T U V W X Y Z