Michael Jackson - Rock With You tab

      I WANNA ROCK WITH YOU
                         As recorded by Michael Jackson
                       (From the 1979 Album OFF THE WALL)

Music by Rod Temperton
Transcribed by Theodore Diaz Jr.

         Ebm9                  Ab                   Bb                 Bb9sus4
      x 6 4 6 6 6          4 6 6 5 4 4          6 8 8 7 6 6          6 x 6 5 4 4

        Db9sus4              Ab9sus4              Gbmaj7                 Fm7
      9 x 9 8 7 7          4 x 4 3 2 2          x 9 8 6 6 6         x 8 10 8 9 8

         Bmaj7                Ebm7                   G                 AbVIII
      x x 9 8 7 6          x 6 8 6 7 6         x 10 9 7 8 7         x 11 10 8 9 8

         Bbm7                  Eb9                 Db/F                C9sus4
      6 8 6 6 6 6          x 6 5 6 6 6          x 8 6 6 6 x          8 x 8 7 6 6

        D9sus4
     10 x 10 9 8 8

Gtr I (E A D G B E) - 'Untitled'

    Q=105
    Ebm9              Ab       Bb
    Gtr I
    E S S S S E Q Q   E. S s S E +E. S s E.
||--6-6-----6---6---|-4--4-4---6-(6)-6-6----|
||o-6-6-----6---6---|-4--4-4---6-(6)-6-6----|
||--6-6-----6---6---|-5--5-5---7-(7)-7-7----|
||--4-4-----4---4---|-6--6-6---8-(8)-8-8----|
||o-6-6-----6---6---|-6--6-6---8-(8)-8-8----|
||------------------|-4--4-4---6-(6)-6-6----|


  Ebm9              Bb9sus4  Db9sus4
  E S S S S E Q Q   E. S S S E +E. S S E.
|-6-6-----6---6---|-4--4-4---7-(7)-7-7-----|
|-6-6-----6---6---|-4--4-4---7-(7)-7-7-----|
|-6-6-----6---6---|-5--5-5---8-(8)-8-8-----|
|-4-4-----4---4---|-6--6-6---9-(9)-9-9-----|
|-6-6-----6---6---|------------------------|
|-----------------|-6--6-6---9-(9)-9-9-----|


  Ebm9                Ab       Bb
  E S S S S E Q  Q    E. S s S E +E. S s E.
|-6-6-----6---6-----|-4--4-4---6-(6)-6-6----|
|-6-6-----6---6-----|-4--4-4---6-(6)-6-6----|
|-6-6-----6---6-----|-5--5-5---7-(7)-7-7----|
|-4-4-----4---4-----|-6--6-6---8-(8)-8-8----|
|-6-6-----6---6-----|-6--6-6---8-(8)-8-8----|
|-------------------|-4--4-4---6-(6)-6-6----|


  Ab9sus4  Ab                Ab9sus4  Ab
  E. S s S E +E. S S S S S   E. S s S E +E. S S S S S
|-2--2-2---4-(4)-4-4---4---|-2--2-2---4-(4)-4-4---4----|
|-2--2-2---4-(4)-4-4---4---|-2--2-2---4-(4)-4-4---4----|
|-3--3-3---5-(5)-5-5---5---|-3--3-3---5-(5)-5-5---5----|
|-4--4-4---6-(6)-6-6---6---|-4--4-4---6-(6)-6-6---6----|
|----------6-(6)-6-6---6---|----------6-(6)-6-6---6----|
|-4--4-4---4-(4)-4-4---4---|-4--4-4---4-(4)-4-4---4----|


  Ebm9                Ab9sus4
  E S S S S E Q  Q    E S S S S E Q  Q
|-6-6-----6---6-----|-2-2-----2---2-----|
|-6-6-----6---6-----|-2-2-----2---2-----|
|-6-6-----6---6-----|-3-3-----3---3-----|
|-4-4-----4---4-----|-4-4-----4---4-----|
|-6-6-----6---6-----|-------------------|
|-------------------|-4-4-----4---4-----|


  Bb9sus4
  E S S S S E Q  Q    E S S S S E Q  Q
|-4-4-----4---4-----|-4-4-----4---4-------|
|-4-4-----4---4-----|-4-4-----4---4-------|
|-5-5-----5---5-----|-5-5-----5---5-------|
|-6-6-----6---6-----|-6-6-----6---6-------|
|-------------------|---------------------|
|-6-6-----6---6-----|-6-6-----6---6-------|


  Ebm9                Ab9sus4
  E S S S S E Q  Q    E S S S S E Q  Q
|-6-6-----6---6-----|-2-2-----2---2-----|
|-6-6-----6---6-----|-2-2-----2---2-----|
|-6-6-----6---6-----|-3-3-----3---3-----|
|-4-4-----4---4-----|-4-4-----4---4-----|
|-6-6-----6---6-----|-------------------|
|-------------------|-4-4-----4---4-----|


  Bb9sus4
  E S S S S E Q  Q    E S S S S E Q  Q
|-4-4-----4---4-----|-4-4-----4---4-------|
|-4-4-----4---4-----|-4-4-----4---4-------|
|-5-5-----5---5-----|-5-5-----5---5-------|
|-6-6-----6---6-----|-6-6-----6---6-------|
|-------------------|---------------------|
|-6-6-----6---6-----|-6-6-----6---6-------|


  Gbmaj7              Fm7
  E S S S S E Q  Q     E  S S S  S E  Q  Q
|-6-6-----6---6-----|--8--8------8----8-----|
|-6-6-----6---6-----|--9--9------9----9-----|
|-6-6-----6---6-----|--8--8------8----8-----|
|-8-8-----8---8-----|-10-10-----10---10-----|
|-9-9-----9---9-----|--8--8------8----8-----|
|-------------------|-----------------------|


  Bmaj7               Ab9sus4
  E S S S S E Q  Q    E S S S S E Q  Q
|-6-6-----6---6-----|-2-2-----2---2-------|
|-7-7-----7---7-----|-2-2-----2---2-------|
|-8-8-----8---8-----|-3-3-----3---3-------|
|-9-9-----9---9-----|-4-4-----4---4-------|
|-------------------|---------------------|
|-------------------|-4-4-----4---4-------|


  Ebm7      Fm7       Gbmaj7
  Q          Q        E Q.          W
|-6----------8--------6-------|-------------|
|-7----------9--------6-------|-------------|
|-6----------8--------6-------|-------------|
|-8---------10--------8-------|-------------|
|-6----------8--------9-------|-------------|
|-----------------------------|-------------|


  Ebm7    Fm7     Gbmaj7  G      AbVIII
  Q        Q      Q        E      E          +W
|-6--------8------6--------7------8-|--------(8)-----------------------------||-|
|-7--------9------6--------8------9-|--------(9)----------------------------o||-|
|-6--------8------6--------7------8-|--------(8)-----------------------------||-|
|-8-------10------8--------9-----10-|-------(10)-----------------------------||-|
|-6--------8------9-------10-----11-|-------(11)----------------------------o||-|
|-----------------------------------|----------------------------------------||-|


  Ebm9              Ab       Bb
  Gtr I
  E S S S S E Q Q   E. S s S E +E. S s E.
|-6-6-----6---6---|-4--4-4---6-(6)-6-6----|
|-6-6-----6---6---|-4--4-4---6-(6)-6-6----|
|-6-6-----6---6---|-5--5-5---7-(7)-7-7----|
|-4-4-----4---4---|-6--6-6---8-(8)-8-8----|
|-6-6-----6---6---|-6--6-6---8-(8)-8-8----|
|-----------------|-4--4-4---6-(6)-6-6----|


  Ebm9              Bb9sus4  Db9sus4
  E S S S S E Q Q   E. S S S E +E. S S E.
|-6-6-----6---6---|-4--4-4---7-(7)-7-7------|
|-6-6-----6---6---|-4--4-4---7-(7)-7-7------|
|-6-6-----6---6---|-5--5-5---8-(8)-8-8------|
|-4-4-----4---4---|-6--6-6---9-(9)-9-9------|
|-6-6-----6---6---|-------------------------|
|-----------------|-6--6-6---9-(9)-9-9------|


  Ebm9                Ab       Bb
  E S S S S E Q  Q    E. S s S E +E. S s E.
|-6-6-----6---6-----|-4--4-4---6-(6)-6-6----|
|-6-6-----6---6-----|-4--4-4---6-(6)-6-6----|
|-6-6-----6---6-----|-5--5-5---7-(7)-7-7----|
|-4-4-----4---4-----|-6--6-6---8-(8)-8-8----|
|-6-6-----6---6-----|-6--6-6---8-(8)-8-8----|
|-------------------|-4--4-4---6-(6)-6-6----|


  Ab9sus4  Ab                Ab9sus4  Ab
  E. S s S E +E. S S S S S   E. S s S E +E. S S S S S
|-2--2-2---4-(4)-4-4---4---|-2--2-2---4-(4)-4-4---4----|
|-2--2-2---4-(4)-4-4---4---|-2--2-2---4-(4)-4-4---4----|
|-3--3-3---5-(5)-5-5---5---|-3--3-3---5-(5)-5-5---5----|
|-4--4-4---6-(6)-6-6---6---|-4--4-4---6-(6)-6-6---6----|
|----------6-(6)-6-6---6---|----------6-(6)-6-6---6----|
|-4--4-4---4-(4)-4-4---4---|-4--4-4---4-(4)-4-4---4----|


  Bbm7
  S S S S S S S S S E. Q    S S S S S S S S S E. Q
|-6---6-----6---6-6-------|-6---6-----6---6-6-------|
|-6---6-----6---6-6-------|-6---6-----6---6-6-------|
|-6---6-----6---6-6-------|-6---6-----6---6-6-------|
|-6---6-----6---6-6-------|-6---6-----6---6-6-------|
|-8---8-----8---8-8-------|-8---8-----8---8-8-------|
|-6---6-----6---6-6-------|-6---6-----6---6-6-------|


  Eb9
  S S S S S S S S S E. Q    S S S S S S S S S E. Q
|-6---6-----6---6-6-------|-6---6-----6---6-6--------|
|-6---6-----6---6-6-------|-6---6-----6---6-6--------|
|-6---6-----6---6-6-------|-6---6-----6---6-6--------|
|-5---5-----5---5-5-------|-5---5-----5---5-5--------|
|-6---6-----6---6-6-------|-6---6-----6---6-6--------|
|-------------------------|--------------------------|


  Gbmaj7              Db/F
  E S S S S E Q  Q    E S S S S E Q  Q
|-6-6-----6---6-----|-------------------|
|-6-6-----6---6-----|-6-6-----6---6-----|
|-6-6-----6---6-----|-6-6-----6---6-----|
|-8-8-----8---8-----|-6-6-----6---6-----|
|-9-9-----9---9-----|-8-8-----8---8-----|
|-------------------|-------------------|


  Bmaj7               Ab9sus4
  E S S S S E Q  Q    E S S S S E Q  Q
|-6-6-----6---6-----|-2-2-----2---2-------|
|-7-7-----7---7-----|-2-2-----2---2-------|
|-8-8-----8---8-----|-3-3-----3---3-------|
|-9-9-----9---9-----|-4-4-----4---4-------|
|-------------------|---------------------|
|-------------------|-4-4-----4---4-------|


  Ebm9              Ab       Bb
  Gtr I
  E S S S S E Q Q   E. S s S E +E. S s E.
|-6-6-----6---6---|-4--4-4---6-(6)-6-6----|
|-6-6-----6---6---|-4--4-4---6-(6)-6-6----|
|-6-6-----6---6---|-5--5-5---7-(7)-7-7----|
|-4-4-----4---4---|-6--6-6---8-(8)-8-8----|
|-6-6-----6---6---|-6--6-6---8-(8)-8-8----|
|-----------------|-4--4-4---6-(6)-6-6----|


  Ebm9              Bb9sus4  Db9sus4
  E S S S S E Q Q   E. S S S E +E. S S E.
|-6-6-----6---6---|-4--4-4---7-(7)-7-7------|
|-6-6-----6---6---|-4--4-4---7-(7)-7-7------|
|-6-6-----6---6---|-5--5-5---8-(8)-8-8------|
|-4-4-----4---4---|-6--6-6---9-(9)-9-9------|
|-6-6-----6---6---|-------------------------|
|-----------------|-6--6-6---9-(9)-9-9------|


  Ebm9                Bb9suC9susDb9sus4                  D9sus4
  E S S S S E Q  Q    Q.   Q.   Q    +W           +H      H
|-6-6-----6---6-----|-4----6----7--|-(7)--------|-(7)-----8----|
|-6-6-----6---6-----|-4----6----7--|-(7)--------|-(7)-----8----|
|-6-6-----6---6-----|-5----7----8--|-(8)--------|-(8)-----9----|
|-4-4-----4---4-----|-6----8----9--|-(9)--------|-(9)----10----|
|-6-6-----6---6-----|--------------|------------|--------------|
|-------------------|-6----8----9--|-(9)--------|-(9)----10----|


    Q=105
    Em9               A        B
    Gtr I
    E S S S S E Q Q   E. S s S E +E. S s E.
||--7-7-----7---7---|-5--5-5---7-(7)-7-7----|
||o-7-7-----7---7---|-5--5-5---7-(7)-7-7----|
||--7-7-----7---7---|-6--6-6---8-(8)-8-8----|
||--5-5-----5---5---|-7--7-7---9-(9)-9-9----|
||o-7-7-----7---7---|-7--7-7---9-(9)-9-9----|
||------------------|-5--5-5---7-(7)-7-7----|


  Em9               B9sus4   D9sus4
  E S S S S E Q Q   E. S S S  E  +E.  S  S E.
|-7-7-----7---7---|-5--5-5----8--(8)--8--8------|
|-7-7-----7---7---|-5--5-5----8--(8)--8--8------|
|-7-7-----7---7---|-6--6-6----9--(9)--9--9------|
|-5-5-----5---5---|-7--7-7---10-(10)-10-10------|
|-7-7-----7---7---|-----------------------------|
|-----------------|-7--7-7---10-(10)-10-10------|


  Em9                 A        B
  E S S S S E Q  Q    E. S s S E +E. S s E.
|-7-7-----7---7-----|-5--5-5---7-(7)-7-7----|
|-7-7-----7---7-----|-5--5-5---7-(7)-7-7----|
|-7-7-----7---7-----|-6--6-6---8-(8)-8-8----|
|-5-5-----5---5-----|-7--7-7---9-(9)-9-9----|
|-7-7-----7---7-----|-7--7-7---9-(9)-9-9----|
Tap to rate this tab
 
# A B C D E F G H I J K L M N O P Q R S T U V W X Y Z