Song name
# A B C D E F G H I J K L M N O P Q R S T U V W X Y Z

Michael Jackson - You Are Not Alone tab

Michael Jackson - You Are Not Alone
Tabbed By - Matthew Foligno
Email - mattfolino@yahoo.com

Hi guys I learnt this song myself. Sounds good to me let me know what u guys think. Hope 
u enjoy Iv also added strumming part of the song.
D.. Down Strum
U.. Up Strum

E|--------------------------0-------1~~--0-----------|
B|-5-3-1-0-1~~--5-3-1-3-1~~---5-5-3--------3-5-6-3---|
G|---------------------------------------------------|
D|---------------------------------------------------|
A|---------------------------------------------------|
E|---------------------------------------------------|

    Strum..C|    Strum..Am   Strum..Dm    Strum..G
           ^           ^           ^             ^
E|---------^-----------^----0------^~----0-------^---|
B|-5-3-1-0-^~--5-3-1-3-^~-----5-5-3^-------3-5-6-^---|
G|---------------------------------------------------|
D|---------------------------------------------------|
A|---------------------------------------------------|
E|---------------------------------------------------|

Strumming.. C Chord---------------------- "D-DU-D.......Switch Chord
Strumming.. Am Chord----D~~~~~D-DU-D   -- "
Strumming.. Dm Chord----D~~~~D-DU-D    -- "
Strumming.. G Chord-----D~~~~D-DU-D    -- "
Tap to rate this tab
# A B C D E F G H I J K L M N O P Q R S T U V W X Y Z