Song name
# A B C D E F G H I J K L M N O P Q R S T U V W X Y Z

Michael Jackson - Billie Jean Acoustic tab

Tabbed by:Cameron Rudderham


Tuning:Standard (Capo 2nd fret) All notes relative to capo

e|---------------------------------------------------------------------------|
B|---------------------------------------------------------------------------|
G|---------------------------------------------------------------------------|
D|-2---0-2-0-------2---0-2-0-------2---0-2-0-------2---0-2-0-----------------|
A|---2-------2-0-2---2-------2-0-2---2-------2-0-2---2-------2-0-2-----------|
E|---------------------------------------------------------------------------|

e|-0-----2---------3-----2---------0-----2---------3-----2-------------------|
B|----------------------------------------------------------------cont.d-----|
G|---------------------------------------------------------------------------|
D|-2---0-2-0-------2---0-2-0-------2---0-2-0-------2---0-2-0-----------------|
A|---2-------2-0-2---2-------2-0-2---2-------2-0-2---2-------2-0-2-----------|
E|---------------------------------------------------------------------------|
Tap to rate this tab
 
# A B C D E F G H I J K L M N O P Q R S T U V W X Y Z