Song name
# A B C D E F G H I J K L M N O P Q R S T U V W X Y Z

Michael Jackson - You Rock My World tab

This song is pretty easy, and has an R'n'B feel.

VERSE (piano and bass arranged for guitar):
e:----------------------------
b:----------------------------
g:----------------------------
d:----------------------------
a:--3-2-0---0---0-2-----------
e:------------------0--0------

CHORUS (horns arranged for guitar):
e:-------------------------------
b:-------------------------------
g:--0-2-2---0-2-2-------0-2-4----
d:-----------------2--2-------2--
a:-------------------------------
e:-------------------------------

BRIDGE:
e:--------------------|------------------
b:--------------------|------------------
g:--7--4------7-------|--7--4------------
d:--7--4-7----7--5-4--|--7--4-7---5--7---
a:--5--2-7----5--5-4--|--5--2-7---5--7---
e:-------5-------3-2--|-------5---3--5---
Tap to rate this tab
# A B C D E F G H I J K L M N O P Q R S T U V W X Y Z