Song name
# A B C D E F G H I J K L M N O P Q R S T U V W X Y Z

Michael Jackson - Unbreakable tab

"Unbreakable" (Jackson)
By Michael J Jackson
Opening track from the "Invincible" album (2001)
Transcribed by Richard

This song is easy to play, and is quite fast

INTRO/VERSE:
g:------------------------
d:---6-4-6---6-6----------
a:---------6-----5-6------
e:------------------------

POST-CHORUS:      BRIDGE:
g:--1-2-3---      ---------
d:----------      ---------
a:----------      ---------
e:----------      --4-2-4--


That's it for the whole song. Obviously there are a lot of effects and
drums used. If you need them, lyrics can be found on any good MJ site.
Tap to rate this tab
# A B C D E F G H I J K L M N O P Q R S T U V W X Y Z