Song name
# A B C D E F G H I J K L M N O P Q R S T U V W X Y Z

Michael Jackson - The Way You Make Me Feel tab

This is my first tab..... I hope you like it!!

Intro:
     E      D       E      D       E      D       E      D
e---------------------------------------------------------------------------|
B-----------3--------------3--------------3--------------3------------------|
G----1-----2-2------1-----2-2------1-----2-2------1-----2-2-----------------|
D-----2---0----------2---0----------2---0----------2---0--------------------|
A---2--------------2--------------2--------------2--------------------------|
E--0--------------0--------------0--------------0---------------------------|



Verse 1:
     E      D       E      D       E      D       E      D
e---------------------------------------------------------------------------|
B-----------3--------------3--------------3--------------3------------------|
G----1-----2-2------1-----2-2------1-----2-2------1-----2-2-----------------|
D-----2---0----------2---0----------2---0----------2---0--------------------|
A---2--------------2--------------2--------------2--------------------------|
E--0--------------0--------------0--------------0---------------------------|

E      D       E      D       E      D       E      D
e---------------------------------------------------------------------------|
B-----------3--------------3--------------3--------------3------------------|
G----1-----2-2------1-----2-2------1-----2-2------1-----2-2-----------------|
D-----2---0----------2---0----------2---0----------2---0--------------------|
A---2--------------2--------------2--------------2--------------------------|
E--0--------------0--------------0--------------0---------------------------|

Lyrics: Hey pretty baby with the high heels on
        You give me fever like Ive never, ever known
        Youre just a product of loveliness
        I like the groove of your walk, your talk, your dress



Pre Chorus:
     A        G         A       G        A       G         A         B
e------------------------------------------------------------------2-2-2----|
B------------------------------------------------------------------3-3-3----|
G-----2-------0---------2-------0---------2-------0---------2------3-3-3----|
D----2-2-------0-------2-2-------0-------2-2-------0-------2-------3-3-3----|
A---0--------2--------0--------2--------0--------2--------0--------2-2-2----|
E-----------3-----------------3-----------------3------------------2-2-2----|

     E      D       E      D       E      D       E      
e---------------------------------------------------------------------------|
B-----------3--------------3--------------3---------------------------------|
G----1-----2-2------1-----2-2------1-----2-2------1-------------------------|
D-----2---0----------2---0----------2---0---------2-------------------------|
A---2--------------2--------------2---------------2-------------------------|
E--0--------------0--------------0----------------0-------------------------|

Lyrics: I feel your fever
        From miles around
        Ill pick you up in my car and well paint the town
        Just kiss me baby and tell me twice
        That youre the one for me


Chorus:
"The way you makin me feel"  E     D       E      D       E      D
e---------------------------------------------------------------------------|
B----------------------------------3--------------3--------------3----------|
G---------------------------1-----2-2------1-----2-2------1-----2-2---------|
D----------------------------2---0----------2---0----------2---0------------|
A--------------------------2--------------2--------------2------------------|
E-------------------------0--------------0--------------0-------------------|

     E      D       E      D       E      D       E      D      E       D
e---------------------------------------------------------------------------|
B-----------3--------------3--------------3--------------3--------------3---|
G----1-----2-2------1-----2-2------1-----2-2------1-----2-2------1-----2-2--|
D-----2---0----------2---0----------2---0----------2---0----------2---0-----|
A---2--------------2--------------2--------------2--------------2-----------|
E--0--------------0--------------0--------------0--------------0------------|

Lyrics: The way you make me feel
        You really turn me on
        You knock me off of my feet
        My lonely days are gone


Verse 2 lyrics: I like the feelin you're givin me
               Just hold me baby and im in ecstasy
               Oh Ill be workin from nine to five
               To buy you things to keep you by my side


Pre Chorus 2 Lyrics: I never felt so in love before
                    Just promise baby, youll love me forevermore
                    I swear Im keepin you satisfied
                    cause youre the one for me


Chorus 2 Lyrics: The way you make me feel
                 You really turn me on
                 You knock me off of my feet
                 My lonely days are gone
Tap to rate this tab
# A B C D E F G H I J K L M N O P Q R S T U V W X Y Z