Song name
# A B C D E F G H I J K L M N O P Q R S T U V W X Y Z

Michael Jackson - Heal The World tab

By: Miccs :DD i hope you enjoy it


Verse 1:
E ---------------------------------------|\
B ---------------------------------------| \
G --------------------6-7-/7-9-6---------|  \
D -------7---7-9--7-9------------7-------|   \
A --/7-9----9----------------------------|    \
E ---------------------------------------|     \
                                                - 4x
E ---------------------------------------|     /
B ---------------------------------------|    /
G ---------------6h7-6---9/11-9~---------|   /
D -------7---7-9-------9-----------------|  /
A --/7-9----9----------------------------| /
E ---------------------------------------|/

Verse 2:
E ---------------------------------------|     
B -----------10-9------------------------|   
G --7-9-9/11------9--9-9-11-9-11-----6-9-|   
D -------------------------------7h9-----|  
A ---------------------------------------| 
E ---------------------------------------|

E ---------------------------------------|     
B ---------------------------------------|   
G -6-6-6---------------------------------|   
D -------9-9--9-9-9--7-7-----------------|  
A ---------------------------------------| 
E ---------------------------------------|

Verse 3:
E ----------------------------------------------|     
B ----------------------------------------------|   
G ----------6-6-6-6h7-7---9-9-9-9-7-9-7-6---7-6-|   
D ------7---------------9-----------------9-----|  
A -/7-9-----------------------------------------| 
E ----------------------------------------------|

E ---------------------------------------|     
B -----------10-9------------------------|   
G --7-9-9/11------9--9-9-11-9-11-----6-9-|   
D -------------------------------7h9-----|  
A ---------------------------------------| 
E ---------------------------------------|

E ---------------------------------------|     
B ---------------------------------------|   
G --6-6-6-----6-7-6----------------------|   
D --------9-9-------9-7------------------|  
A ---------------------------------------| 
E ---------------------------------------|

REPEAT ALL



Tap to rate this tab
# A B C D E F G H I J K L M N O P Q R S T U V W X Y Z