Song name
# A B C D E F G H I J K L M N O P Q R S T U V W X Y Z

Michael Jackson - Give In To Me chords

Highlighted       Show chord diagrams
Orianthis version of Michael Jacksons Give Into Me.
http://www.youtube.com/watch?v=oSW7y-LaP-Y
Hope you like it. Enjoy ;)

D*|xx0232

tab for INTRO, 1st VESRE, background through whole song.
          Em                 C     D
E||-----------------------|----------------------||
B||-----------------------|--1-----3-------------||
G||-----------------------|--0--0--0--0----------||
D||------2--4/5--4---2----|--2-----4---4---------||
A||---2-----------------2-|--3-----5----5--------||
E||-0---------------------|----------------------||
          Em                 C     D
E||-----------------------|----------------------||
B||-----------------------|--1-----3--3----------||
G||-----------------------|--0--0--0---0---------||
D||------2--4/5--4---2----|--2-----4----4--------||
A||---2-----------------2-|--3-----5-------------||
E||-0---------------------|----------------------||

She always takes it with a heart of stone
Cuz all she does is throws it back to me
I've spent a lifetime looking for some one

Bridge:

Bm                   Am
Don't try to understand me
Bm                            D*
Just simply do the things I say

Chorus:
          Em
Love is a feeling
             C         D
Give it when I want it
Em
Cuz I'm on fire
          C       D
Quench my desire
             Em
Give it when I want it
           C      D
Talk to me woman
Em
Give in to me
             C B
Give in to me

Verse 2:

Em                          C        D
You always knew just how to make me cry
Em                      C         D
And never did I ask you questions why
Em                               C       D
It seems you get your kicks from hurting me

Bridge:

Bm                   Am
Don't try to understand me
             B                    D*
Because your words just aren't enough

Chorus:
          Em
Love is a feeling
              C   D
Quench my desire
               Em
Give it when I want it
          C      D
Takin me higher
          Em
Love is a woman
                C       D
I don't want to hear it
           Em
Give in to me
              C  D
Give in to me

Bridge:

Am                                 C
You and your friends were laughing at me in town
         Em
But it's okay
Yes it's okay
Am                              Em
You won't be laughing girl when I'm not around
        B
I'll be okay
       C
I'd never find
                      D
Some peace of mind, oh

Bridge:

E||------------------------------------------------|
B||------------------------------------------------|
G||--999999999-9/111111111111111111-11/12----------|
D||--777777777-7/-9-9-9-9-9-9-9-9-9--9/10----------|
A||--777777777-7/-9-9-9-9-9-9-9-9-9--9/10----------|
E||------------------------------------------------|

E|-------------------------------------------------|
B|-------------------------------------------------|
G|--1212121212121212-12/14141414141414141414-------|
D|--1010101010101010-10/12121212121212121212-------|
A|--1010101010101010-10/12121212121212121212-------|
E|-------------------------------------------------|

Bridge:

Don't try to tell me
Because your words just aren't enough

Chorus:

Love is a feeling
Quench my desire
Give it when I want it
Takin me higher

Talk to me woman
Love is a feeling
Give in to me
Give in to me

Oh

Love is a feeling
I don't wanna hear it
Quench my desire
Takin me higher
Tell it to the preacher
Satisfy the feeling
Give in to me
Give in to me
Give in to me

I don't wanna
I don't wanna
I don't wanna hear it
Give in to the fire
Talk to me woman
Quench my desire
Act like a lady
Talk to me baby

Give in to me
Give in to the fire
Give in to me
Give in to me
Give in to me

Love is a feeling
Give in to me
Give in to me
Give in to me
Give in to me

Cuz I'm on fire
Talk to me woman
Quench my desire
Give in to the feeling
Tap to rate this tab
# A B C D E F G H I J K L M N O P Q R S T U V W X Y Z