Song name
# A B C D E F G H I J K L M N O P Q R S T U V W X Y Z

Michael Jackson - 3 Michael Jackson Riffs tab

Michael Jackson Tablature
Tabbed by: Dave "SLASH" McGinn
This is my first tab so tell me what you think E-mail me ginzer69@hotmail.com.
MICHAEL JACKSON ROX!!!!!!!!!!!!!!

GIVE INTO ME
E|------------------------------------------------------------------------|
B|------------------------------------------------------------------------|
G|------------------------------------------------------------------------|
D|----2-4-/5~~-4~~-2~~---------/5-4~~~~-----------------------------------|
A|-/2----------------------2-3~~------------------------------------------|
E|------------------------------------------------------------------------|

BEAT IT
E|---------------------------------------------------------------------|
B|---------------------------------------------------------------------|
G|---------------------------------------------------------------------|
D|-----------5---------------------------------------------------------|
A|-0--5h7-5---7~~--/9-7-5-5~~------------------------------------------|
E|---------------------------------------------------------------------|

SMOOTH CRIMINAL(BASS)
G|----------------------------------------------------------------------|
D|----------------------------------------------------------------------|
A|----------------------------------------------------------------------|
E|-5-5-5-5-5-5-7-7---7-7-7-8-8---8-8-8-7-7-5----------------------------|
Tap to rate this tab
# A B C D E F G H I J K L M N O P Q R S T U V W X Y Z