Guitaretab - guitar tabs
Song name
# A B C D E F G H I J K L M N O P Q R S T U V W X Y Z

Michael Kamen - Band Of Brothers tab

[------------------------------------------------------------]
[------------------------------------------------------------]
[------0---2~--4~~-7~-0--2---4~~-----0--2~--4--5-5--4--0---]
[----0-------------------------------0-----------------------]
[------------------------------------------------------------]
[--3-------------------------------3-------------------------]

[----------------------------------------------------------------------------------|
[----------------------------------------------------------------------------------|
[--9~-7--2~--4~~--4--57~~--7--7~-5--4~-2~-----0--4--2--4--5--7--------9----------|
[---------------------------------------------0------------------------------------|
[----------------------------------------------------------------------------------|
[----------------------------------------------------------------------------------|

5--3----5--3---5--3----|]
-----------------------|
11---------------------|
-----------------------|
-----------------------|
-----------------------|
[ Tab from: http://www.guitaretab.com/m/michael-kamen/115986.html ]
[-------------------------------------------------------------------------]
[-------------------------------------------------------------------------]
[-----0--4--2--0--0~------0--2--44~~---7~-02~-4--4~~-----0-2-4--5-5-4-0-]
[---0--------------------0--------------------------------0---------------]
[-------------------------------------------------------------------------]
[-3--------------------3--------------------------------3-----------------]

[----------------------------------------------------------------------------------|
[----------------------------------------------------------------------------------|
[--9~-7--2~--44~~--4--57~~--7--7--5--4--2--0---0--4--2--4--5--7--------9---------|
[-----------------------------------------------------------0----------------------|
[----------------------------------------------------------------------------------|
[----------------------------------------------------------------------------------|

5--3----5--3---5--3----|]
-----------------------|
11---------------------|
-----------------------|
-----------------------|
-----------------------|

[--------------------------------------------------------------]
[----------------------------------------------------0---------]
[---0-4-2-0--0------2-----0------2-------------0---0-----------]
[-0--------------0-0---0-0---0-0---0-0------0--------0---------]
[--------------------------------------------------------------]
[---------------------------------------------3-------------3--]


DO NOT TAKE CREDIT OF MY TABS.

Email me if I made any mistakes.
Copy and paste this into Microsoft word, and make the font size smaller if this comes out weird.

Email FAIVIOUS@live.ca for any questions.
Related for Band Of Brothers tab