Song name
# A B C D E F G H I J K L M N O P Q R S T U V W X Y Z

Michael Kiwanuka - Home Again tab

(Intro)
e|--------------------------------------------------------------|
B|-----3---3------3-----3-----3------3-----3------3-------------|
G|---4----4-----4-----4------4-----4-----4------4---------------|
D|-5-----5-----5-----5-----5-----5------5-----5-----------------|
A|--------------------------------------------------------------|
E|--------------------------------------------------------------|

(Verse 1) Home again.. 
e|--------------------------------------------------------------|
B|-----3--------------3----3------------------------------------|
G|---4-----2----2----4----4-----0-----0------2-----2-----2----2-|
D|-5------4----4----5----5-----4-----4------1-----1-----1----1--|
A|-------5----5---------------5-----5------2-----2-----2----2---|
E|--------------------------------------------------------------|

e|--------------------------------------------------------------|
B|---0---0---0---0------3----3----------------3-----3-----------|
G|--------------------4-----4-----2----2-----4----4-----0----0--|
D|--2---2---2---2---5-----5------4----4----5----5------4----4---|
A|------------------------------5----5----------------5----5----|
E|-0---0---0---0------------------------------------------------|

e|--------------------------------------------------------------|
B|-----------------------0----0----0----0------1----0----1----1-|
G|---2----2----2----2------------------------2----2----2----2---|
D|--1----1----1----1----2----2----2----2------------------------|
A|-2----2----2----2-------------------------0----0----0----0----|
E|---------------------0----0----0----0-------------------------|

e|---0-----2----0-----0-----------------------------------------|
B|--3----3-----3-----3-----3-----3------3-----3-----1----1----1-|
G|------------------------------------------------0-----0----0--|
D|-0----0----0-----0------0-----0-----0-----0-------------------|
A|----------------------2------2-----2-----2-----3-----3----3---|
E|--------------------------------------------------------------|

e|--------------------------------------------------------------|
B|---1-----3-----3-----3----3------1-----0-----1----3----5----7-|
G|--0-----------------------------2-----2------2----------------|
D|--------0-----0----0-----0------------------------4----5----7-|
A|-3-----2----2-----2-----2-----0-----0-----3-------------------|
E---------------------------------------------------------------|

e|--------------------------------------------------------------|
B|-3----5----3-------3----3----3-----3-----1-----1-----1-----1--|
G|----------------------------------------2-----2-----2-----2---|
D|-4----5----4------0----0----0-----0---------------------------|
A|---------------------------------------0-----0-----0-----0----|
E|----------------3-----3----3-----3----------------------------|

e|--------------------------------------
B|-3----5----7----3-----5----3----------  (REPEAT FROM BEGINNING) 
G|--------------------------------------
D|-4----5----7----4-----5----4----------
A|--------------------------------------
E|--------------------------------------

(Second Time playing don't play last 3 notes- go to bridge) 
(BRIDGE) 

e|-----------------------------------------|
B|---4----4----4----4-----3----3-----3----3|
G|--0----0----0----0-----0----0-----0----0-| (X2) 
D|-----------------------------------------|
A|-3----3----3----3------------------------|
E|----------------------3----3-----3----3--|

e|-----------------------------------------------------------------|
B|-7----8----7----8----7------5--7--5--4--5---5--7--5--4--5--------|
G|-----------------------------------------------------------------|
A|-7----7----7----7----7----0---(pluck)-------2--------2--5--------|
E|-----------------------------------------------------------------|

(Verse)
e|--------------------------------------------------------------|
B|-----3--------------3----3------------------------------------|
G|---4-----2----2----4----4-----0-----0------2-----2-----2----2-|
D|-5------4----4----5----5-----4-----4------1-----1-----1----1--|
A|-------5----5---------------5-----5------2-----2-----2----2---|
E|--------------------------------------------------------------|

e|--------------------------------------------------------------|
B|---0---0---0---0------3----3----------------3-----3-----------|
G|--------------------4-----4-----2----2-----4----4-----0----0--|
D|--2---2---2---2---5-----5------4----4----5----5------4----4---|
A|------------------------------5----5----------------5----5----|
E|-0---0---0---0------------------------------------------------|

e|--------------------------------------------------------------|
B|-----------------------0----0----0----0------1----0----1----1-|
G|---2----2----2----2------------------------2----2----2----2---|
D|--1----1----1----1----2----2----2----2------------------------|
A|-2----2----2----2-------------------------0----0----0----0----|
E|---------------------0----0----0----0-------------------------|

e|---0-----2----0-----2-----------------------------------------|
B|--3----3-----3-----3-----3-----3------3-----3-----1----1----1-|
G|------------------------------------------------0-----0----0--|
D|-0----0----0-----0------0-----0-----0-----0-------------------|
A|----------------------2------2-----2-----2-----3-----3----3---|
E|--------------------------------------------------------------|

e|--------------------------------------------------------------|
B|---1-----3-----3-----3----3------1-----0-----1----3----5----7-|
G|--0-----------------------------2-----2------2----------------|
D|--------0-----0----0-----0------------------------4----5----7-|
A|-3-----2----2-----2-----2-----0-----0-----3-------------------|
E---------------------------------------------------------------|

e|--------------------------------------------------------------|
B|-3----5----3-------3----3----3-----3-----1-----1-----1-----1--|
G|----------------------------------------2-----2-----2-----2---|
D|-4----5----4------0----0----0-----0---------------------------|
A|---------------------------------------0-----0-----0-----0----|
E|----------------3-----3----3-----3----------------------------|

e|----------------------------------------------------------------|
B|-3----5----7----3-----5----3--------3----3----3----3----3----3--|
G|-----------------------------------4----4----4----4----4----4---|
D|-4----5----7----4-----5----4------5----5----5----5----5----5----|
A|----------------------------------------------------------------|
E|--------------------------------------------------------------3-|

My first tab ever, hope it's useful and correct! (more or less)
Tap to rate this tab
# A B C D E F G H I J K L M N O P Q R S T U V W X Y Z