Song name
# A B C D E F G H I J K L M N O P Q R S T U V W X Y Z

Michael Kiwanuka - Worry Walks Beside Me tab

Worry Walks Beside Me _ Michael Kiwanuka _ Intro tab

For the chords used, go here:
http://tabs.ultimate-guitar.com/m/michael_kiwanuka/worry_walks_beside_me_crd.htm

To listen to the song, go here:
http://www.youtube.com/watch?v=2R2sqdZZvFQ

Legend: Chords in (parentheses)are played quieter.

e --------------------------------------------------|
B -----4------------------------4----(4)------------|
G -------4-------4-4----------4---4(4)---------4----|
D ---6-----------6-5(5)-----5-----4----------4----3-|
A ----------6-6--------6-6-------------(6)6-------4-|
E -4------------------------------------------------|

e -----------------------------------------------------|
B --------------(0)-----0---------------2--x-----------|
G -----4------4----------------4---3--3---------3------|
D ---3---3----3-------3---3--3---3------------2---2----|
A -4--------4----4--4--------4-------------------------|
E -----------------------------------------3---------4-|

It's the first tab I've transcribed, so it might not be 100% correct but I did my best.
Tap to rate this tab
 
# A B C D E F G H I J K L M N O P Q R S T U V W X Y Z