Guitaretab - guitar tabs
Song name
# A B C D E F G H I J K L M N O P Q R S T U V W X Y Z

Michael Langer - Last Call For His Life tab

From 'Vreci's performance on youtube.
http://www.michaellanger.at/

----------------------------0----0-1--0---------------------------0---|
-----1-----0-1--3------0-1----------------------1--------3----------3-|
--0--0--0-------0--0--------0----0-2--0---------0--------2------------|
-----2----------0-----------------------------------------------------|
-----3----------2-----------3-----------------0-----------------------|
--------------------------------------------------------2------3------|

-----------------------------------3----------------------------------|
----0-1---0--------------8--6----5----5-3------0-----------1----------|
-----------------------------------------------1-----------0-2-0------|
----0-2---0-----------------------------------------------------------|
---------------------------------3-------------2---------0------------|
--3-------------------------------------------------------------------|

--------------------------------------------3---------------------------|
-------------------6--8s10--------8-6---------5---3-------3-------------|
-------------------5----------------------------5---------5-------------|
--2---0---------(0)-----------------------------------------------------|
---------3------------------------7-------------------------------------|
-------------------------------------------3------------3---------------|
[ Tab from: http://www.guitaretab.com/m/michael-langer/108896.html ]
------------------------------------------------0----------------------|
--3s5--3--------------------0-1---3--------1-3--3----------------------|
---------5------------5-----------0----0--------0--------2-------------|
---------------------5-----------------------------------3-------------|
------------------3---------------2-------------3----------------------|
----------------------------------------------------x----3-------------|

-----------------------------0---------------------------------------|
---------------3---------------3-------0-1--0--------8-6--5----------|
--2------=-----3-----------------------------------0-----------5s4---|
---------------2-----------------------0-2--0------------------------|
--3-------------------------------------------------------3----------|
-1-------1s2--------------3---------3--------------------------------|

---------------------0----3-----3-5---|-|--------8-------------------|
-----3----------1----1----------------|-|.--------10-8--------8-6----|
--4-------------0-2-(0)---------5-----|-|-----------10--------5------|
-(2)----------------------------------|-|.----10---------------------|
-------------0------------------3-----|-|---------------------7------|
--3-----------------------------------|-|----------------------------|

------3----3------------|-|---------|
------3-5--3-----------.|-|---------|
-----5-----------4-5----|-|---5-----|
-----------------------.|-|---------|
------------------------|-|---3-----|
---3--------------------|-|---------|
×
Last Call For His Life