Song name
# A B C D E F G H I J K L M N O P Q R S T U V W X Y Z

Michael Learns To Rock - Thats Why tab

the key board tuned in guitar:
 intro:
e ---2---3---2----0--0---------------0---|---|
B ----------------1--1---3---1---3---1---|---|
G ----------------0--0---------------0---|---|
D ----------------2--2---------------2---|---|
A -----------------------------------3---|---|
e ---------------------------------------|---|

e -----3------3-----2----------|---|
B ----3-------3------3---------|---|
G -------- ---2-------0--------|---|...baby wont u tel me y?.........
D -----------------------------|---|
A -----------------------------|---|
e -----------------------------|---|
simple but enjoy!
ahndzrhyz@yahoo.com
Tap to rate this tab
 
# A B C D E F G H I J K L M N O P Q R S T U V W X Y Z