Song name
# A B C D E F G H I J K L M N O P Q R S T U V W X Y Z

Michael Learns To Rock - 25 Minutes tab

e--7--8-10-10-8-7-5-7-8-3----I
B--8-------------------------I
G--7-------------------------I
D----------------------------I
A----------------------------I
E----------------------------I

e--3-5-7-5-3-5-3-3-----------I
B----------------3-----------I
G----------------4-----------I
D----------------5-----------I
A----------------------------I
E----------------------------I

Tap to rate this tab
# A B C D E F G H I J K L M N O P Q R S T U V W X Y Z