Song name
# A B C D E F G H I J K L M N O P Q R S T U V W X Y Z

Michael Learns To Rock - Actor tab

-------------------------------------------------------------------------------
			     actor - michael learns to rock
-------------------------------------------------------------------------------
Tabbed by:totim
Email:totziemoron@yahoo.com
     ...first tab....
     ang sarap kasing pakinggan!.....pakiayos nlng...thanks!

Tuning:eadgbe

e|-----------------------------------------7p5-----------------------7--5b7----|
B|----------------------------------4h5p4-------7--------------------7--5b7----|
G|--/5-5--4--4-5----/5-5--4--4-5-------------------5b7--5----------------------|
D|---------------------------------------------------------7p5-----------------|
A|--------------------------------------------------------------7--------------|
E|-----------------------------------------------------------------------------|

e|-------5-------------------------------------------9---8----11-9-8-----------|
B|-------5---5--7/9-\--5/10--10-9-7---7-9-10---10-12---------------------------|
G|-----------4--6/8-\--4/9-----------------------------------------------------|
D|-----------------------------------------------------------------------------|
A|-----------------------------------------------------------------------------|
E|-----------------------------------------------------------------------------|

************************************

| /   slide up
| \   slide down
| h   hammer-on
| p   pull-off
| ~   vibrato
| +   harmonic
| x   Mute note
| b   Bend
| pb  Pre-bend
| br  Bend release
| pbr Pre-bend release
| brb Bend release bend

************************************
Tap to rate this tab
 
# A B C D E F G H I J K L M N O P Q R S T U V W X Y Z