Song name
# A B C D E F G H I J K L M N O P Q R S T U V W X Y Z

Michael Learns To Rock - Breaking My Heart tab

----------------------------------------------------------
			     SONG NAME - breking my heart
----------------------------------------------------------
Tabbed by:totim
Email:

Tuning:

e|-2------------------------(2)-------------------------------------------|
B|--------------------------(3)-----3------------5----------6------8--6---|
G|--------------------------(2)--5----3----------5------------------------|
D|-2----0-2-------------------2/5---------0-2-4--5--------5/7----7/9------|
A|----4------2-1----2/6-2/4-----------------------------------------------|
E|---------------4--------------------------------------------------------|

e|--------------------|
B|-------10-----------|
G|-----9--------------|
D|---9----------------|
A|-7------------------|
E|--------------------|
Tap to rate this tab
 
# A B C D E F G H I J K L M N O P Q R S T U V W X Y Z