Song name
# A B C D E F G H I J K L M N O P Q R S T U V W X Y Z

Michael Learns To Rock - Breaking My Heart tab

 Song   : Breaking My Heart
 Artist : Michael Learns To Rock
 Album  : Paint My Love
 Re-Tab : Kent Chester (@KLSC120495)

[Intro :]

|-0-0---1-|-0-|---------|---|-----|-------|
|-----1---|---|-3-1-0-1-|---|-1---|-1-0-1-|
|---------|---|---------|---|---0-|-------|
|---------|---|---------|-3-|-----|-------|
|---------|---|---------|---|-----|-------|
|---------|---|---------|---|-----|-------|

[Verse 1:]

G             C
 I'm on the floor
 F                   C  
counting one minute more
G            C       F      G
 No one to break the silence

G       F         G
Staring into the night
      F         C       Am
all alone but that's alright
          F              G            C
It's the feeling deep inside I don't like


[Chorus:]
 C       F    G         C
There is no excuse my friend
      F
for breaking my heart
  G                  C
breaking my heart again
          F        G       C
This is where our journey ends
       F          G      C
Your breaking my heart again

[Verse 2:]
G            C
 Here in my bed
F                          C
Counting the words you've said
G            C       F     G
 They linger in the shadows

G       F            G
Coming home late at night
        F        C     Am
drunk again but that's alright
          F            G            C
It's the look in your eyes I don't like

[Chorus:]
 C       F    G         C
There is no excuse my friend
      F
for breaking my heart
  G                  C
breaking my heart again
          F        G       C
This is where our journey ends
       F          G      C
Your breaking my heart again


[Interlude:]

|---|-------|-------|---------|
|---|-------|-------|---------|
|-0-|-----0-|-------|---------|
|---|-2-3---|-------|---3-0-2-|
|---|-------|-3-2-0-|-3-------|
|---|-------|-------|---------|

|-----0---|-------|----3--5--7--8-|
|---3---1-|-------|-0-------------|
|-0-------|-----0-|---0--0--------|
|---------|-2-3---|---------------|
|---------|-------|---------------|
|---------|-------|---------------|

[Outro:]
 C       F    G         C
There is no excuse my friend
      F
for breaking my heart
  G                  C
breaking my heart again
          F        G       C
This is where our journey ends
       F          G      C
Your breaking my heart again 2x

Repeat Chorus until it Fade away..

*
Tap to rate this tab
 
# A B C D E F G H I J K L M N O P Q R S T U V W X Y Z