Song name
# A B C D E F G H I J K L M N O P Q R S T U V W X Y Z

Michael Mccann - Fema Facility Stress tab

Deus Ex: Human Revolution Soundtrack

Song: FEMA Facility Stress

Composer: Michael McCann

Standard Tuning

The guitar bit: (0:47-1:18; 2:19-2:49)

|-----------------------------------|
|-----------------------------------|
|-----------------------------------|
|-4^(2x)---5^(2x)---3^(2x)----------|
|----------------------------4(12x)-|
|-----------------------------------| repeat

Or you can play like this:

|-----------------------------------|
|-----------------------------------|
|-----------------------------------|
|-----------------------------------|
|-9^(2x)---10^(2x)---8^(2x)---------|
|----------------------------9(12x)-| repeat

^ = bend it down  

Use heavy palm mute and distortion in all the notes here.

http://www.behaviormusic.com/
Tap to rate this tab
 
# A B C D E F G H I J K L M N O P Q R S T U V W X Y Z