Song name
# A B C D E F G H I J K L M N O P Q R S T U V W X Y Z

Michael Monroe - Dead Jail Or Rock N Roll tab

------------------------------------------------------------------

	      Dead Jail Or Rock N Roll - Michael Monroe

------------------------------------------------------------------

Tabbed by: Joe Walker
Email: joerobertwalker@hotmail.co.uk

Tuning: Standard 

e|----------------------------------------------------------------|
B|----------------------------------------------------------------|
G|----------------------------------------------------------------|
D|-----x-x--9-7/9--x-x--9-7/9--777--------------------------------|
A|-----x-x--7-5/7--x-x--7-5/7--555--------------------------------|
E|----------------------------------------------------------------|

e|----------------------------------------------------------------|
B|----------------------------------------------------------------|
G|----------------------------------------------------------------|
D|-----x-x--9-7/9--x-x--9-7/9-------------------------------------|
A|-----x-x--7-5/7--x-x--7-5/7------5------------------------------|
E|-----------------------------5-7--------------------------------|

  Repeat


************************************

| /   slide up
| \   slide down
| h   hammer-on
| p   pull-off
| ~   vibrato
| +   harmonic
| x   Mute note
| b   Bend
| pb  Pre-bend
| br  Bend release
| pbr Pre-bend release
| brb Bend release bend

************************************
Tap to rate this tab
 
# A B C D E F G H I J K L M N O P Q R S T U V W X Y Z