Song name
# A B C D E F G H I J K L M N O P Q R S T U V W X Y Z

Michael Nyman - Heart Asks Pleasure First The Promise tab

-------------------------------------------------------------------------------
	THE HEART ASKS PLEASURE FIRST (The Promise)- Michael Nyman http://www.michaelnyman.com/ 
-------------------------------------------------------------------------------
Tabbed by:debbie
Email:debbienewton6@hotmail.com

not got too far with this yet,but its a nice little bit to play so give it a go!

Tuning:standard

e|7-7-7-9-7-5-2-10-10-10-14-12-10-9------------------------------------------|
B|---------------------------------------------------------------------------|
G|---------------------------------------------------------------------------|
D|---------------------------------------------------------------------------|
A|---------------------------------------------------------------------------|
E|---------------------------------------------------------------------------|

e|7-10h-9-7-7-14-10-7-5-2-0--------------------------------------------------|
B|---------------------------3--3-2-3-2-3-2-5-2-5-2-5-2----------------------|
G|---------------------------------------------------------------------------|
D|---------------------------------------------------------------------------|
A|---------------------------------------------------------------------------|
E|---------------------------------------------------------------------------|

e|-------------------------14-14-14-12-10-10-14-12--14-14-14-12-10-10-7------|
B|7-10-12--12-12--12-15h-----------------------------------------------------|
G|---------------------------------------------------------------------------|
D|---------------------------------------------------------------------------|
A|---------------------------------------------------------------------------|
E|---------------------------------------------------------------------------|


| /  slide up
| \  slide down
| h  hammer-on
| p  pull-off
| ~  vibrato
| +  harmonic
| x  Mute note
Tap to rate this tab
 
# A B C D E F G H I J K L M N O P Q R S T U V W X Y Z