Michael Paynter - Love The Fall tab

Tuning: standard

Guitar 1:
INTRO (I know the intro and verse arenít exactly 100% correct, but it still sounds good) 
E|--------------------|
B|--------------------|
G|---14-14------------| x16
D|-12-12--------------|
A|--------------------|
E|--------------------|

VERSE
e|--------------------|
B|--------------------|
G|----14-12-12-14-----|
D|-12-----------------| x4
A|--------------------|
E|--------------------|

CHORUS
e|-----------------|      
B|-----------------|      
G|-14 x8-----12 x16|      
D|------12 x8--- --| x3   
A|-----------------|      
E|-----------------|

e|-----------------|      
B|-------------13--|      
G|-14-----12-14----|      
D|---14-12---------| x1  
A|-----------------|      
E|-----------------|          

VERSE

CHORUS

SOLO
e|---------------------------|
B|---------------------------|
G|---------------------------|
D|-0-0-0-10-12~-12~----------|
A|---------------------------|
E|---------------------------|

REPEAT CHORUS 

----------------------------------------------------

Guitar 2:

INTRO no guitar 2

VERSE 
 xxxxxxxxxxxxxxxxxxx
e|------------------|
B|------------------|
G|------------------|
D|-12----8----10----| x4
A|-12 x8-8 x8-10 x16|
E|-10----6----8-----|

CHORUS

e|------------------|
B|------------------|
G|------------------|
D|-12----8----10----| x3
A|-12 x8-8 x8-10 x16|
E|-10----6----8-----|

e|----------------------------------|
B|----------------------------------|
G|------------------10----9---------|
D|-12----8----10----10 x4-8 x4----- | x1
A|-12 x8-8 x8-10 x8-8-----7---------|
E|-10----6----8---------------------|

POST CHORUS
Just sorta palm mute inbetween each stroke

e|------------------|
B|------------------|
G|------------------|
D|-12----8----10----| x1
A|-12 x8-8 x8-10 x16|
E|-10----6----8-----|

VERSE 
CHORUS
POST CHORUS x4

e|------------------|
B|------------------|
G|------------------|
D|-12----8----10----| x1
A|-12----8----10----|
E|-10----6----8-----|

CHORUS

END ON

e|---
B|---
G|---
D|-12
A|-12 
E|-10

Tablature explanation :

/        = slide up
\        = slide down
h        = hammer on
p        = pull off
fb       = full bend (whole step)
fb(r)    = full bend and relaese
hb       = half bend (half step)
~~~~~~   = vibrato (tremolo or with left hand)
x        = Muted string string

http://www.michaelpaynter.com/ http://www.myspace.com/michaelpaynter 
http://www.facebook.com/michaelpayntermusic?v=info
Tap to rate this tab
 
# A B C D E F G H I J K L M N O P Q R S T U V W X Y Z