Guitaretab - guitar tabs
Song name
# A B C D E F G H I J K L M N O P Q R S T U V W X Y Z

Michael Penn - Walter Reed tab

Michael Penn - Walter Reed

By: JenB

Enjoy!


Am 0 1 2 2 0 0
Am1 0 1 2 1 0 0
Am2 0 1 2 0 0 0

E   0 0 1 2 x x


Intro x 2
------------------------------------------------|
-----------0^1------------------------------0^1-|
------2------------0--0--------0--0-------0-----|
----2---2-------3-----------2-----------0-------|
--0----------------------3-----------2----------|
------------------------------------------------|


Intro: I count the cases piled up high
Intro: For the 1:15.
Intro: For platform and for passerby
*Intro: It's the same routine..I'm *(NB: Half intro only before bridge)

Bridge:
-3--------|--3--------|--3---------|----3--------|
-3-----6--|--3---5----|--3---0-----|----3---5----|
-3---5----|--3---5----|--3---5-----|----3---5----|
-x--------|--x--------|--x---------|----x--------|
-x--------|--x--------|--x---------|----x--------|
-x--------|--x--------|--x---------|----x--------|
 ranting     while       Iím rav   -      ing, there's..
 nothing     here worth  sa        -


ving
 G

VERSE:

Tell me now, what more do you need?
 C                     G
Take me to Walter Reed tonight.
 Dm                F
Baby I've lost the will for fighting
 Am                E
Over everything.
F
Well there's a few things I gotta say
     C                      G
And make no mistake, I'm madÖ
Dm                       F
'Cause every good thing I've had
       Bb                    Am    Am1

Abandoned me.
 Am2      Intro
[ Tab from: http://www.guitaretab.com/m/michael-penn/114760.html ]
Intro: All I want to do is hide.
Intro: It's graduation day
Intro: And everything I learned inside
*Intro: Didn't seem to pay, I've.. NB: Half intro only before bridge)

Bridge:
-3--------|--3--------|--3-------------3-------|
-3-----6--|--3---5----|--3---0---------3---5---|
-3---5----|--3---5----|--3---5---------3---5---|
-x--------|--x--------|--x-------------x-------|
-x--------|--x--------|--x-------------x-------|
-x--------|--x--------|--x-------------x-------|


had my      fill of     palm     -       trees, and
lighting    up          Grauman's

Chinese.
G

VERSE:

Tell me now, what more do you need?
C                      G
Take me to Walter Reed tonight.
Dm                F
Baby I've lost the will for fighting
Am                 E
Over everything
F
And there's a few things I gotta say.
    C                      G
Make no mistake, I'm mad.
Dm               F
'Cause every good thing I had
       Bb                 Am   Am1
Abandoned me.
 Am2      Am

A sad and lone-some me.
  F            G    Intro


I'm the walking wounded
F               C   G
And I'd say it to your face
Dm
But I can't find my place.
F

So tell me now, what more do you need?
   C                      G
Take me to Walter Reed tonight.
Dm                F
Baby I've lost the will for fighting
Am                 E
Over everything
F

And there's a few things I gotta say.
    C                      G
Make no mistake, I'm mad
Dm                  F
'Cause every good thing I had
       Bb                 Am   Am1
Abandoned me.
 Am2      Am

A sad and lone-some me.
  F            G    Am
A sad and lone-some me.
  F            G    Am
A sad and lone-some me.
  F            G    Am
Related for Walter Reed tab