Song name
# A B C D E F G H I J K L M N O P Q R S T U V W X Y Z

Michael Schenker Group - Bijou Pleasurette tab

-------------------------------------------------------------------------------
	           Bijou Pleasurette - Michael Schenker Group
-------------------------------------------------------------------------------
Band: Michael Schenker Group
Song: Bijou Pleasurette
Album: The Michael Schenker Group

Tabbed by: deathx88
Email: deathx88@yahoo.com

Tuning: Standard



Intro Riff x2

     E  E  E  E  E  E  E  E     E  E  E  E  E  E  E  E   
E||--------------0-----------|--------------0-----------|
B||-----------0-----0--------|-----------0-----0--------|
G||--------5-----------5-----|--------5-----------5-----|
D||-----7-----------------7--|-----7-----------------7--|
A||--0-----------------------|--0-----------------------|
E||--------------------------|--------------------------|




Riff 1 (guitar 1) x4

  E  E  E  E  E  E  E  E     E  E  E  E  E  E  E  E   
--------------0-----------|--------------------------|
-----------0-----0--------|--------------0-----------|
--------5-----------5-----|-----------1-----1--------|
-----7-----------------7--|--------0-----------0-----|
--0-----------------------|-----2-----------------2--|
--------------------------|--0-----------------------|


  E  E  E  E  E  E  E  E     E  E  E  E  E  E  E  E   
--------------0-----------|--------------------------|
-----------0-----0--------|--------------------------|
--------5-----------5-----|-----------4-----------1--|
-----7-----------------7--|--------5-----------0-----|
--0-----------------------|-----5-----------2--------|
--------------------------|--3-----------0-----------|




Riff 1 (guitar 2) x2

  Q    E  E  Q    Q       Q    E  E  E  E  E  E   
-------5--4--5---------|--7----7--5--4--5--7--4--|
------------------5----|-------------------------|
-----------------------|-------------------------|
-----------------------|-------------------------|
-----------------------|-------------------------|
-----------------------|-------------------------|


  Q    E  E  Q    Q       Q    E  E  E  E  E  E     Q    E  E  Q    Q     
--5--------------------|-------------------------|-------5--4--5---------|
-------5--3--5---------|-------------------------|------------------5----|
------------------5----|--7----7--5--4--5--7--4--|--5--------------------|
-----------------------|-------------------------|-----------------------|
-----------------------|-------------------------|-----------------------|
-----------------------|-------------------------|-----------------------|


             |------3-----|                                                     
  Q    E  E  Q    Q    E  E     Q    E  E  Q    Q     
--7----7--5--4----5----7--4--|--5--------------------|
-----------------------------|-------5--3--5---------|
-----------------------------|------------------5----|
-----------------------------|-----------------------|
-----------------------------|-----------------------|
-----------------------------|-----------------------|


                          (don't play note on the second time)
  Q    E  E  E  E  E  E     Q 
-------------------------|-----------------------|
-------------------------|-----------------------|
--7----7--5--4--5--7--4--|--5--------------------|
-------------------------|-----------------------|
-------------------------|-----------------------|
-------------------------|-----------------------|




Riff 2 (guitar 1)

  E  E  E  E  E  E     E  E  E  E  E  E   
--------------0-----|-----------0--------|
-----------0-----0--|--------3-----3-----|
--------5-----------|-----2-----------2--|
-----7--------------|--0-----------------|
--0-----------------|--------------------|
--------------------|--------------------|


  E  E  E  E  E  E     E  E  E  E  E  E     E  E  E  E  E  E   
-----------------1--|--------------0-----|--------------0-----|
--------------0-----|-----------1-----1--|-----------0-----0--|
-----------0--------|--------0-----------|--------5-----------|
--------0-----------|-----2--------------|-----7--------------|
-----2--------------|--3-----------------|--0-----------------|
--3-----------------|--------------------|--------------------|


  E  E  E  E  E  E     E  E  E  E  E  E     H.            
-----------0--------|-----------------1--|--0------------|
--------3-----3-----|--------------0-----|--0------------|
-----2-----------2--|-----------0--------|--5------------|
--0-----------------|--------0-----------|--7------------|
--------------------|-----2--------------|--0------------|
--------------------|--3-----------------|---------------|




Riff 2 (guitar 2) x2
second time play during Riff 3

  S S  S S S S  S S S  S S S     S S S  S S  S S  S S  S S  S  
-----------------------------|--------------------------------|
-----------------------------|--------------------------------|
------------------7-9----7-9-|--10-9-7----7---------7---------|
--7-9-10-9-7-9-10-----10-----|---------10---10-9-10---10-9-10-|
-----------------------------|--------------------------------|
-----------------------------|--------------------------------|


  S S  S   S  S  S  S  S   S  S  S  S     S  S  S  S  S  S  S  S  S  S  S  S  
--------------------------------------|--------12----------------------------|
-------------10-------10S-12-13-15-12-|--13-15----15-13-12----------12-13-15-|
--7-9-10S-12----10-12-----------------|--------------------14-12-14----------|
--------------------------------------|--------------------------------------|
--------------------------------------|--------------------------------------|
--------------------------------------|--------------------------------------|


   S  S  S  S  S  S  S  S  S  S  S  S     S  S  S  S  S  S  S  S  S  S  S  S  
--12----------------------------------|--------------------------------------|
-----15-13-12-15-13-12----13-12-------|--12----------------12----13-12-15-13-|
-----------------------14-------14-12-|-----14-12----14-12----14-------------|
--------------------------------------|-----------15-------------------------|
--------------------------------------|--------------------------------------|
--------------------------------------|--------------------------------------|


   S  S  S  S  S  S  S  S  S  S  S  S     H.            
--12----13-12-------------------------|----------------|
-----15-------15-13-12----------12----|----------------|
-----------------------14-13-14----13-|--14------------|
--------------------------------------|----------------|
--------------------------------------|----------------|
--------------------------------------|----------------|





Riff 3 (guitar 1)

  Q.     E   Q        E  E   H           E   E   E  E   E   E     H.        
--8------7--------|-------------------|------------------------|-----------|
------------10----|------8------------|------------------------|-----------|
------------------|--10-----10--------|------------------------|--9--------|
------------------|-------------------|--9--10--12--9--10--12--|-----------|
------------------|-------------------|------------------------|-----------|
------------------|-------------------|------------------------|-----------|


  E   E  E   E  Q       E   E   Q.      E     E   E   E  E   E   E   
---------------------|--8------------------|------------------------|
---------------------|-----10--------------|------------------------|
--9--10--9------9----|---------10----------|------------------------|
------------12-------|-----------------10--|--9--10--12--9--10--12--|
---------------------|---------------------|------------------------|
---------------------|---------------------|------------------------|


   H.            
----------------|
----------------|
----------------|
----------------|
--12------------|
----------------|




Riff 4 (guitar 1)

  E  E  E  E  E  E     E  E  E  E  E  E   
--------------0-----|-----------0--------|
-----------0-----0--|--------3-----3-----|
--------5-----------|-----2-----------2--|
-----7--------------|--0-----------------|
--0-----------------|--------------------|
--------------------|--------------------|




Riff 4 (guitar 2)

  H         Q       H         Q     
-----------------|-----------------|
-----------------|-----------------|
-----------------|-----------------|
--7~--------7----|--9~--------9----|
-----------------|-----------------|
-----------------|-----------------|

                                                    tr            
   H          Q        Q.     S  S  E   E     Q     H             
-------------------|-----------------------|---------------------|
-------------------|-----------------------|---------------------|
-------------------|----------9------------|--9------------------|
--10~--------10----|--12--------12-10--12--|-------14(15)--------|
-------------------|-----------------------|---------------------|
-------------------|-----------------------|---------------------|


                                                         
  H         Q        Q     H            Q     Q    Q     
-----------------|------------------|-------------------|
-----------10----|------------------|-------------------|
--9--------------|--10--------------|--10---------------|
-----------------|--------12--------|--------12----9----|
-----------------|------------------|-------------------|
-----------------|------------------|-------------------|





Riff 2 (guitar 1)

  E  E  E  E  E  E     E  E  E  E  E  E   
--------------0-----|-----------0--------|
-----------0-----0--|--------3-----3-----|
--------5-----------|-----2-----------2--|
-----7--------------|--0-----------------|
--0-----------------|--------------------|
--------------------|--------------------|


  E  E  E  E  E  E     E  E  E  E  E  E     E  E  E  E  E  E   
-----------------1--|--------------0-----|--------------0-----|
--------------0-----|-----------1-----1--|-----------0-----0--|
-----------0--------|--------0-----------|--------5-----------|
--------0-----------|-----2--------------|-----7--------------|
-----2--------------|--3-----------------|--0-----------------|
--3-----------------|--------------------|--------------------|


  E  E  E  E  E  E     E  E  E  E  E  E     H.            
-----------0--------|-----------------1--|--0------------|
--------3-----3-----|--------------0-----|--0------------|
-----2-----------2--|-----------0--------|--5------------|
--0-----------------|--------0-----------|--7------------|
--------------------|-----2--------------|--0------------|





Riff 3 (guitar 2)

  Q.     E   Q        E  E   H           E   E   E  E   E   E     H.        
--8------7--------|-------------------|------------------------|-----------|
------------10----|------8------------|------------------------|-----------|
------------------|--10-----10--------|------------------------|--9--------|
------------------|-------------------|--9--10--12--9--10--12--|-----------|
------------------|-------------------|------------------------|-----------|
------------------|-------------------|------------------------|-----------|


  E   E  E   E  Q       E   E   Q.      E     E   E   E  E   E   E   
---------------------|--8------------------|------------------------|
---------------------|-----10--------------|------------------------|
--9--10--9------9----|---------10----------|------------------------|
------------12-------|-----------------10--|--9--10--12--9--10--12--|
---------------------|---------------------|------------------------|
---------------------|---------------------|------------------------|


   H.            
----------------|
----------------|
----------------|
----------------|
--12------------|
----------------|






Riff 3b (guitar 1)


  Q.     E   Q        E  E  Q.      E     E   E   E  E   E   E   
--8------7--------|--------------------|------------------------|
------------10----|--------------------|------------------------|
------------------|--10--9--7----------|------------------------|
------------------|----------------10--|--9--10--12--9--10--12--|
------------------|--------------------|------------------------|
------------------|--------------------|------------------------|


  H.              E   E  E   E  Q       E   E   Q.     E   
---------------|---------------------|--8-----------------|
---------------|---------------------|-----10-------------|
--9------------|--9--10--9------9----|---------10------5--|
---------------|------------12-------|--------------------|
---------------|---------------------|--------------------|
---------------|---------------------|--------------------|


  E   E   E  E   E   E      H.            
------------------------|----------------|
------------------------|----------------|
------------------------|----------------|
--9--10--12--9--10--12--|----------------|
------------------------|--12------------|
------------------------|----------------|





Riff 2 (guitar 2)


  S S  S S S S  S S S  S S S     S S S  S S  S S  S S  S S  S  
-----------------------------|--------------------------------|
-----------------------------|--------------------------------|
------------------7-9----7-9-|--10-9-7----7---------7---------|
--7-9-10-9-7-9-10-----10-----|---------10---10-9-10---10-9-10-|
-----------------------------|--------------------------------|
-----------------------------|--------------------------------|


  S S  S   S  S  S  S  S   S  S  S  S     S  S  S  S  S  S  S  S  S  S  S  S  
--------------------------------------|--------12----------------------------|
-------------10-------10S-12-13-15-12-|--13-15----15-13-12----------12-13-15-|
--7-9-10S-12----10-12-----------------|--------------------14-12-14----------|
--------------------------------------|--------------------------------------|
--------------------------------------|--------------------------------------|
--------------------------------------|--------------------------------------|


   S  S  S  S  S  S  S  S  S  S  S  S     S  S  S  S  S  S  S  S  S  S  S  S  
--12----------------------------------|--------------------------------------|
-----15-13-12-15-13-12----13-12-------|--12----------------12----13-12-15-13-|
-----------------------14-------14-12-|-----14-12----14-12----14-------------|
--------------------------------------|-----------15-------------------------|
--------------------------------------|--------------------------------------|
--------------------------------------|--------------------------------------|


   S  S  S  S  S  S  S  S  S  S  S  S     H.            
--12----13-12-------------------------|----------------|
-----15-------15-13-12----------12----|----------------|
-----------------------14-13-14----13-|--14------------|
--------------------------------------|----------------|
--------------------------------------|----------------|
--------------------------------------|----------------|




Riff 1 (guitar 1) x4

  E  E  E  E  E  E  E  E     E  E  E  E  E  E  E  E   
--------------0-----------|--------------------------|
-----------0-----0--------|--------------0-----------|
--------5-----------5-----|-----------1-----1--------|
-----7-----------------7--|--------0-----------0-----|
--0-----------------------|-----2-----------------2--|
--------------------------|--0-----------------------|


  E  E  E  E  E  E  E  E     E  E  E  E  E  E  E  E   
--------------0-----------|--------------------------|
-----------0-----0--------|--------------------------|
--------5-----------5-----|-----------4-----------1--|
-----7-----------------7--|--------5-----------0-----|
--0-----------------------|-----5-----------2--------|
--------------------------|--3-----------0-----------|




Riff 1 (guitar 2) x2

  Q    E  E  Q    Q       Q    E  E  E  E  E  E   
-------5--4--5---------|--7----7--5--4--5--7--4--|
------------------5----|-------------------------|
-----------------------|-------------------------|
-----------------------|-------------------------|
-----------------------|-------------------------|
-----------------------|-------------------------|


  Q    E  E  Q    Q       Q    E  E  E  E  E  E     Q    E  E  Q    Q     
--5--------------------|-------------------------|-------5--4--5---------|
-------5--3--5---------|-------------------------|------------------5----|
------------------5----|--7----7--5--4--5--7--4--|--5--------------------|
-----------------------|-------------------------|-----------------------|
-----------------------|-------------------------|-----------------------|
-----------------------|-------------------------|-----------------------|


             |------3-----|                                                     
  Q    E  E  Q    Q    E  E     Q    E  E  Q    Q     
--7----7--5--4----5----7--4--|--5--------------------|
-----------------------------|-------5--3--5---------|
-----------------------------|------------------5----|
-----------------------------|-----------------------|
-----------------------------|-----------------------|
-----------------------------|-----------------------|


                          (don't play note on the second time)
  Q    E  E  E  E  E  E     Q 
-------------------------|-----------------------|
-------------------------|-----------------------|
--7----7--5--4--5--7--4--|--5--------------------|
-------------------------|-----------------------|
-------------------------|-----------------------|
-------------------------|-----------------------|




Outro (guitar 1)

                                                        ^                  
  E  E  E  E  E  E  E  E     E  E  E  E  E  E  E  E     W                  
--------------------------|--------------0-----------|--0----------------||
--------------0-----------|-----------0-----0--------|--0----------------||
-----------1-----1--------|--------5-----------5-----|--5----------------||
--------0-----------0-----|-----7-----------------7--|--7----------------||
-----2-----------------2--|--0-----------------------|--0----------------||
--0-----------------------|--------------------------|-------------------||





Outro (guitar 2)

                                                 ^
  Q    E  E  E  E  E  E     H        H           W                  
-------------------------|--5-----------------|--0----------------||
--6----6--5--3--5--6--3--|-----------5--------|--0----------------||
-------------------------|--------------------|--5----------------||
-------------------------|--------------------|--7----------------||
-------------------------|--------------------|--0----------------||
-------------------------|--------------------|-------------------||




Duration Legend
---------------
W - whole
H - half
Q - quarter
E - 8th
S - 16th
T - 32nd
X - 64th
. - note dotted
|-n-|  - n-tuplets


Tablature Legend
----------------
L - tied note
x - dead note
g - grace note
(n) - ghost note
> - accentuded note
NH - natural harmonic
AH - artificial harmonic
TH - tapped harmonic
SH - semi harmonic
PH - pitch harmonic
h - hammer on
p - pull off
b - bend
br - bendRelease
pb - preBend
pbr - preBendRelease
brb - bendReleaseBend
\n/ - tremolo bar dip
\n - tremolo bar dive
-/n - tremolo bar Release up
/n\ - tremolo bar inverted dip
/n - tremolo bar return
-\n - tremolo bar Release down
S - shift slide
s - legato slide
/ -  slide into from below or out of upwards
\ -  slide into from above or out of downwards
~ - vibrato
W - wide vibrato
tr - trill
TP - tremolo picking
T - tapping
S - slap
P - pop
< - fade in
^ - brush up
v - brush down
Tap to rate this tab
# A B C D E F G H I J K L M N O P Q R S T U V W X Y Z