Song name
# A B C D E F G H I J K L M N O P Q R S T U V W X Y Z

Michael Schenker - Searching For A Reason tab

-------------------------------------------------------------------------------
		  SEARCHING FOR A REASON - Michael Schenker Group
-------------------------------------------------------------------------------
MSG
Searching For A Reason
From: Assault Attack

Tabbed by:malpka

Tuning: Standard



[FIG: 1]
e|--------------------------------|--------------------------------|
B|--------------------------------|--------------------------------|
G|--------------------------------|---7b9-----7----9~~~~-----------|
D|---5--7---9--10~~~--------------|--------------------------------|
A|--------------------------------|--------------------------------|
E|--------------------------------|--------------------------------|
 |                                |                                |
e|--------------------------------|--------------------------------|
B|--------------------------------|--------------------------------|
G|--------------------------------|-5-------5----------------------|
D|-7-------7-------3-------3------|-5----5--5----5--5-------5------|
A|-7----7--7----7--3----3--3----3-|-3----3--3----3--5----5--5----5-|
E|-5----5--5----5--1----1--1----1-|-----------------3----3--3----3-|



e|--------------------------------|--------------------------------|
B|--------------------------------|--------------------------------|
G|--------------------------------|----7b9r7--5----7/9---7~~~~-----|
D|---5--7---9--10~-----7----------|--------------------------------|
A|--------------------------------|--------------------------------|
E|--------------------------------|--------------------------------|
 |                                |                                |
e|--------------------------------|--------------------------------|
B|--------------------------------|--------------------------------|
G|--------------------------------|-5-------5----------------------|
D|-7-------7-------3-------3------|-5----5--5----5--5-------5------|
A|-7----7--7----7--3----3--3----3-|-3----3--3----3--5----5--5----5-|
E|-5----5--5----5--1----1--1----1-|-----------------3----3--3----3-|


e|--------------------------------|
B|--------------------------------|
G|---5----------------------------|
D|---5-----5----------------------|
A|---3-----5----------------------|
E|---------3----------------------|


CHORUS:
[FIG: 2]

       We all need               To have good timing
e|-------8-------7--------7-------|--8-----8------7----7~~---------|
B|-------8-------8--------8-------|--8-----8------8----8~~---------|
G|-------7-------7--------7-------|--7-----7------7----7~~---------|
D|--7-----------------------------|--------------------------------|
A|--5-----------------------------|--------------------------------|
E|--------------------------------|--------------------------------|

         We all have               The right to live
e|------8---------7---------------|---8-------10------7~~----------|
B|------8---------8---------------|---8-------8-------8~~----------|
G|------7---------7---------------|---7-------7-------7~~----------|
D|--7-----------------------------|--------------------------------|
A|--5-----------------------------|--------------------------------|
E|--------------------------------|--------------------------------|

        To spend our time           Hurting, fighting
e|-------8-------7--------7-------|--8-----8------7----7~~---------|
B|-------8-------8--------8-------|--8-----8------8----8~~---------|
G|-------7-------7--------7-------|--7-----7------7----7~~---------|
D|--7-----------------------------|--------------------------------|
A|--5-----------------------------|--------------------------------|
E|--------------------------------|--------------------------------|

         We all have                Much more to give
e|------8---------7---------------|---8-------10------7~~----------|
B|------8---------8---------------|---8-------8-------8~~----------|
G|------7---------7---------------|---7-------7-------7~~----------|
D|--7-----------------------------|--------------------------------|
A|--5-----------------------------|--------------------------------|
E|--------------------------------|--------------------------------|


VERSE:
[FIG: 3]
                                   The cry of the nations
e|--------------------------------|--------------------------------|
B|--------------------------------|--------------------------------|
G|--------------------------------|-5-------5----------------------|
D|-7-------7-------3-------3------|-5----5--5----5--5-------5------|
A|-7----7--7----7--3----3--3----3-|-3----3--3----3--5----5--5----5-|
E|-5----5--5----5--1----1--1----1-|-----------------3----3--3----3-|

                                    Scream in our ears
e|--------------------------------|--------------------------------|
B|--------------------------------|--------------------------------|
G|--------------------------------|-5-------5----------------------|
D|-7-------7-------3-------3------|-5----5--5----5--5--5--5---5----|
A|-7----7--7----7--3----3--3----3-|-3----3--3----3--5--5--5---5--5-|
E|-5----5--5----5--1----1--1----1-|-----------------3--3--3---3--3-|

                                    A devil will promise
e|--------------------------------|--------------------------------|
B|--------------------------------|--------------------------------|
G|--------------------------------|-5-------5----------------------|
D|-7--7--7--7------3-------3------|-5----5--5----5--5-------5------|
A|-7--7--7--7---7--3----3--3----3-|-3----3--3----3--5----5--5----5-|
E|-5--5--5--5---5--1----1--1----1-|-----------------3----3--3----3-|

                                    The breath of our fears
e|--------------------------------|--------------------------------|
B|--------------------------------|--------------------------------|
G|--------------------------------|-5-------5----------------------|
D|-7-------7-------3-------3------|-5----5--5----5--5-------5------|
A|-7----7--7----7--3----3--3----3-|-3----3--3----3--5----5--5----5-|
E|-5----5--5----5--1----1--1----1-|-----------------3----3--3----3-|


CHORUS
[FIG: 2]


VERSE:
[FIG: 4]
                                    Searching for the reason
e|-----------------------12~~~~---|--------------------------------|
B|-----------------------13~~~~---|--7---8---7---5----8---5--------|
G|-------------12p11--------------|--7---7---7---5------------5----|
D|---0----0----------14-----------|--------------------------------|
A|--------------------------------|--------------------------------|
E|--------------------------------|--------------------------------|

                                   The lines are all crossed
e|-----------------------12~~~~---|------------------8-----8-------|
B|-----------------------13~~~~---|--7---8---7--5------8-----8-----|
G|-------------12p11--------------|--7---7---7--5--------9-----9---|
D|---0----0----------14-----------|--------------------------------|
A|--------------------------------|--------------------------------|
E|--------------------------------|--------------------------------|


                                    We fall into darkness
e|-----------------------12~~~~---|--------------------------------|
B|-----------------------13~~~~---|--7---8---5---5-----5-----------|
G|--/12--------12p11--------------|--7---7---5h7p5--------5--------|
D|--/12---0----------14-----------|--------------------------5-----|
A|--------------------------------|--------------------------------|
E|--------------------------------|--------------------------------|

                                   And all of us lost
e|-----------------------12~~~~---|--------------------------------|
B|-----------------------13~~~~---|--7---8---7---5---------5-------|
G|-------------12p11--------------|--7---7---7---5----/8-------5---|
D|---0----0----------14-----------|--------------------------------|
A|--------------------------------|--------------------------------|
E|--------------------------------|--------------------------------|


CHORUS
[FIG: 2]


SOLO:

e|--------------------------------|--------------------------------|
B|--------------------------------|-----------------------7~~~-----|
G|--------8--8--7--6~~--9--8--6---|--8~~---8--8--7--6~~------------|
D|--9~~---------------------------|--------------------------------|
A|--------------------------------|--------------------------------|
E|--------------------------------|--------------------------------|
 |                                |                                |
e|--------------------------------|--------------------------------|
B|--------------------------------|--------------------------------|
G|--------------------------------|--------------------------------|
D|--------------------------------|--------------------------------|
A|--------6--6--5---4~~--7--7--4--|--6~~---6--6--5--4~~------------|
E|--7~~---------------------------|-----------------------6~~------|
 |                                |                                |
e|--------------------------------|--------------------------------|
B|--------------------------------|--------------------------------|
G|--------------------------------|--------------------------------|
D|--------------------------------|--------------------------------|
A|--------------------------------|--------------------------------|
E|--7~~---7--7--6---5~~--9--8--5--|--7~~---7--7--6--5~~---2~~------|


e|--------------------------------|--------------------------------|
B|--------------------------------|--------------------------------|
G|--------8--8--7--6~~--9--8--6---|--8~~---8--7h8p7--7~~--6~~------|
D|--9~~---------------------------|--------------------------------|
A|--------------------------------|--------------------------------|
E|--------------------------------|--------------------------------|
 |                                |                                |
e|--------------------------------|--------------------------------|
B|--------------------------------|--------------------------------|
G|--------------------------------|--------------------------------|
D|--------------------------------|--------------------------------|
A|--------6--6--5---4~~--7--7--4--|--6~~---6--5h6p5--7~~--4~~------|
E|--7~~---------------------------|--------------------------------|
 |                                |                                |
e|--------------------------------|--------------------------------|
B|--------------------------------|--------------------------------|
G|--------------------------------|--------------------------------|
D|--------------------------------|--------------------------------|
A|--------------------------------|--------------------------------|
E|--7~~---7--7--6---5~~--9--8--5--|--7~~---7--7--6--5~~------------|


e|--------------------------------|--------------------------------|
B|--------------------------------|-----------------------7~~~-----|
G|--------8--8--7--6~~--6--9--6---|--------8--8--7--6~~------------|
D|--9~~---------------------------|--9~~---------------------------|
A|--------------------------------|--------------------------------|
E|--------------------------------|--------------------------------|
 |                                |                                |
e|--------------------------------|--------------------------------|
B|--------------------------------|--------------------------------|
G|--------------------------------|--------------------------------|
D|--------------------------------|--------------------------------|
A|--------6--6--5---4~~--4--7--4--|--------6--6--5--4~~------------|
E|--7~~---------------------------|--7~~------------------6~~------|
 |                                |                                |
e|--------------------------------|--------------------------------|
B|--------------------------------|--------------------------------|
G|--------------------------------|--------------------------------|
D|--------------------------------|--------------------------------|
A|--------------------------------|--------------------------------|
E|--7~~---7--7--6---5~~--9--8--5--|--7~~---7--7--6--5~~---2~~------|


e|--------------------------------|--------------------------------|
B|--------------------------------|------------10b12---10------9~~-|
G|--------8--8--7--6~~--6--9--6---|--8~~---------------------------|
D|--9~~---------------------------|--------------------------------|
A|--------------------------------|--------------------------------|
E|--------------------------------|--------------------------------|
 |                                |                                |
e|--------------------------------|--------------------------------|
B|--------------------------------|--------------------------------|
G|--------------------------------|------------11b13---11------9~~-|
D|--------------------------------|--------------------------------|
A|--------6--6--5---4~~--4--7--4--|--6~~---------------------------|
E|--7~~---------------------------|--------------------------------|
 |                                |                                |
e|--------------------------------|--------------------------------|
B|--------------------------------|--------------------------------|
G|--------------------------------|--------------------------------|
D|--------------------------------|--------------------------------|
A|--------------------------------|--------------------------------|
E|--7~~---7--7--6---5~~--9--8--5--|--7~~---------------------------|


                                                 [      n.h.      ]
e|--------------------------------|----------------7-----------12--|
B|--------------------------------|------------9-----7---12--------|
G|------------9---------------7---|------------9-------7----12-----|
D|------------9---------------7---|------------9-------------------|
A|------------7---------------5---|------------7-------------------|
E|--0----0-----------0----0-------|--0----0------------------------|

                                                          n.h.
e|--------------------------------|-----------------------+12\-----|
B|------------9-------------------|------------9----------+12\-----|
G|------------9---------------7---|------------9----------+12\-----|
D|------------9---------------7---|------------9-------------------|
A|------------7---------------5---|------------7-------------------|
E|--0----0-----------0----0-------|--0----0------------------------|


                                                 [      n.h.      ]
e|--------------------------------|----------------7-----------12--|
B|--------------------------------|------------9-----7---12--------|
G|------------9---------------7---|------------9-------7----12-----|
D|------------9---------------7---|------------9-------------------|
A|------------7---------------5---|------------7-------------------|
E|--0----0-----------0----0-------|--0----0------------------------|


e|--------------------------------|--------------------------------|
B|------------9-------------------|--------------------------------|
G|------------9---------------7---|--9\----------------------------|
D|------------9---------------7---|--9\----------------------------|
A|------------7---------------5---|--7\----------------------------|
E|--0----0-----------0----0-------|--0-----------------------------|



[FIG: 1]



| /  slide up
| \  slide down
| h  hammer-on
| p  pull-off
| ~  vibrato
| +  harmonic
| x  Mute note
===============================================================================
Tap to rate this tab
# A B C D E F G H I J K L M N O P Q R S T U V W X Y Z