Song name
# A B C D E F G H I J K L M N O P Q R S T U V W X Y Z

Michael Schenker - Fat City No tab

Help us improve GuitareTab! Take a short survey!
-------------------------------------------------------------------------------
		   FAT CITY N.O. - Michael Schenker Group
-------------------------------------------------------------------------------
MSG
Fat City N.O.
From: The Unforgiven (1999)
Tabbed by: malpka
Tuning: Standard


[FIG: 1]
e|--------------------------------|--------------------------------|
B|--------------------------------|--------------------------------|
G|--------------------------------|--------------------------------|
D|--------------------------------|--------------------------------|
A|----7p5-------0-5~-5-7----------|----7p5-------0-5~-5-7----------|
E|-0------0-3-4----------7-3~-0-0-|-0------0-3-4----------7-3~-0-0-|
   *      * * * *                   *      * * * *

e|--------------------------------|--------------------------------|
B|--------------------------------|--------------------------------|
G|--------------------------------|--------------------------------|
D|--------------------------------|--------------------------------|
A|----7p5-------0-5~-5-7----------|----7p5-------0-5~-5-7----------|
E|-0------0-3-4----------7-3~-0-0-|-0------0-3-4----------7-3~-0-0-|
   *      * * * *                   *      * * * *

[FIG: 2]
e|--------------------------------|--------------------------------|
B|-----8-----8-----8-8~-----------|-----8-----8-----8-8~-----------|
G|-----7-----7-----7-7~-----------|-----7-----7-----7-7~-----------|
D|-----6-----6-----6-6~-----------|-----6-----6-----6-6~-----------|
A|-----7--x--7--x--7-7~-----------|-----7--x--7--x--7-7~-----------|
E|--0-----x-----x--------0-1-2-3--|--0-----x-----x--------0-1-2-3--|
    *                                *

e|--------------------------------|--------------------------------|
B|-----8-----8-----8~~------------|-----8-----8-----8~~------------|
G|-----7-----7-----7~~------------|-----7-----7-----7~~------------|
D|-----6-----6-----6~~------------|-----6-----6-----6~~------------|
A|-----7--x--7--x--7~~------------|-----7--x--7--x--7~~------------|
E|--0-----x-----x--------0-1-2-3--|--0-----x-----x--------0-1-2-3--|
    *                                *

VERSE:
[FIG: 3a]
  Gone through alot for my freedom
e|-------------------|-------------------|
B|-------------------|-------------------|
G|-------------------|-------------------|
D|-------------------|-------------------|
A|------------1------|------------1------|
E|--1b--3-1-3---3p0--|--1b--3-1-3---3p0--|

  Lost a life on the way
e|-------------------|-------------------|
B|-------------------|-------------------|
G|-------------------|-------------------|
D|-------------------|-------------------|
A|------------1------|------------1------|
E|--1b--3-1-3---3p0--|--1b--3-1-3---3p0--|

  Left home everything I own
e|-------------------|-------------------|
B|-------------------|-------------------|
G|-------------------|-------------------|
D|-------------------|-------------------|
A|------------1------|------------1------|
E|--1b--3-1-3---3p0--|--1b--3-1-3---3p0--|

  As I headed out to join the charade
e|-------------------|-------------------|
B|-------------------|-------------------|
G|-------------------|-------------------|
D|-------------------|-------------------|
A|------------1------|------------1------|
E|--1b--3-1-3---3p0--|--1b--3-1-3---3p0--|

   Got caught up with the wild and the madness
e|-------------------|-------------------|
B|-------------------|-------------------|
G|-------------------|-------------------|
D|-------------------|-------------------|
A|--3-3-3-3-3-3-3-3--|--3-3-3-3-3-3-3-3--|
E|--1-1-1-1-1-1-1-1--|--1-1-1-1-1-1-1-1--|

  May have gone too far I must confess
e|-------------------|-------------------|
B|-------------------|-------------------|
G|-------------------|-------------------|
D|-------------------|-------------------|
A|--3-3-3-3-3-3-3-3--|--3-3-3-3-3-3-3-3--|
E|--1-1-1-1-1-1-1-1--|--1-1-1-1-1-1-1-1--|


e|-------------------|-------------------|
B|-------------------|-------------------|
G|-------------------|-------------------|
D|-------------------|-------------------|
A|------------1------|------------1------|
E|--1b--3-1-3---3p0--|--1b--3-1-3---3p0--|

  I must confess...
e|-------------------|-------------------|
B|-------------------|-------------------|
G|-------------------|-------------------|
D|-------------------|-------------------|
A|------------1------|------------1------|
E|--1b--3-1-3---3p0--|--1b--3-1-3---3p0--|

VERSE:
[FIG: 3b]
  My money hid away  in the gas tank
e|-------------------|-------------------|
B|-------------------|-------------------|
G|-------------------|-------------------|
D|-------------------|-------------------|
A|------------1------|------------1------|
E|--1b--3-1-3---3p0--|--1b--3-1-3---3p0--|

  Gotta keep it steady No joke, no mistake
e|-------------------|-------------------|
B|-------------------|-------------------|
G|-------------------|-------------------|
D|-------------------|-------------------|
A|------------1------|------------1------|
E|--1b--3-1-3---3p0--|--1b--3-1-3---3p0--|

  Soon I'll be telling you to hold on
e|-------------------|-------------------|
B|-------------------|-------------------|
G|-------------------|-------------------|
D|-------------------|-------------------|
A|--3-3-3-3-3-3-3-3--|--3-3-3-3-3-3-3-3--|
E|--1-1-1-1-1-1-1-1--|--1-1-1-1-1-1-1-1--|

  Strapped in my 440 Hemi burnin'
e|-------------------|-------------------|
B|-------------------|-------------------|
G|-------------------|-------------------|
D|-------------------|-------------------|
A|--3-3-3-3-3-3-3-3--|--3-3-3-3-3-3-3-3--|
E|--1-1-1-1-1-1-1-1--|--1-1-1-1-1-1-1-1--|


CHORUS:
[FIG: 4]
  Long live Fat City   Got nothing to lose
e|-------------------|-------------------|
B|-------------------|-------------------|
G|-------------------|----------5~-------|
D|--5---------5------|--3-------5~-------|
A|--5-------3-5------|--3-------3~-------|
E|--3-------1-3------|--1----------------|


  White blue down the avenue -Worth everything I know
e|-------------------|-------------------|
B|-------------------|-------------------|
G|-------------------|----------5~-------|
D|--5---------5------|--3-------5~-------|
A|--5-------3-5------|--3-------3~-------|
E|--3-------1-3------|--1----------------|

  Long live Fat City  Out blowin' a fuse
e|-------------------|-------------------|
B|-------------------|-------------------|
G|-------------------|----------5~-------|
D|--5---------5------|--3-------5~-------|
A|--5-------3-5------|--3-------3~-------|
E|--3-------1-3------|--1----------------|


  Set this town alight!
e|-------------------|
B|-------------------|
G|-------------------|
D|--3-------5--------|
A|--3-------5--------|
E|--1-------3--------|


[FIG: 3]

[FIG: 1]

VERSE:
[FIG: 3a]
I found my way out the backstreet
Glad to be alive
A hundred more miles I'll be long gone
No more fightin' or scrapes to survive
Up ahead says 'Rest for Riders'
Headlights may be red lights beware

VERSE:
[FIG: 3b]
I look into my rear view mirror
They're closer that they do appear
Another minute I'll be far away
Another second I'll be shiftin' gears

CHORUS:
[FIG: 4]
Long live Fat City
Got nothing to lose
White blue down the avenue
Worth everything I know
Long live Fat City
Out blowin' a fuse

Set this town alight!

[FIG: 3]

[FIG: 1]

[FIG: 2]

SOLO:


VERSE:
[FIG: 3a]
Paid alot for my freedom
I never wondered why
Memory's clear and reminds me daily
It was so close but I passed them by
There was a space by the policeman
Gunshots all around over my head


VERSE:
[FIG: 3b]
Look into my rear view mirror
Closer than they will appear
Another minute I'll be far away
Another second I'll be shifting gears


CHORUS:
[FIG: 4]
Long live Fat City
Got nothing to lose
White blue down the avenue
Worth everything I know
Long live Fat City
Out blowin' a fuse

Set this town alight!

OUTRO SOLO:

Set it alight
Set this town alight!






| *  palm mute
| /  slide up
| \  slide down
| h  hammer-on
| p  pull-off
| ~  vibrato
| +  harmonic
| x  Mute note
===============================================================================
Related for Fat City No tab