Song name
# A B C D E F G H I J K L M N O P Q R S T U V W X Y Z

Michael Schenker - Fatal Strike tab

-------------------------------------------------------------------------------
			FATAL STRIKE - Michael Schenker Group
-------------------------------------------------------------------------------
MSG
Fatal Strike
From: Arachnophobiac (2003)
Tabbed by: malpka
Tuning: Standard


INTRO:
[FIG: 1]
e|------------------------|------------------------|
B|------------------------|------------------------|
G|--9---7---2---5---------|--9---7---2---5---------|
D|--9---7---2---5---5-----|--9---7---2---5---5-----|
A|--7---5---0---3---5-----|--7---5---0---3---5-----|
E|------------------3--0--|------------------3--0--|

e|------------------------|------------------------|
B|------------------------|------------------------|
G|--9---7---2---5---------|--9---7---2---5---------|
D|--9---7---2---5---5-----|--9---7---2---5---5-----|
A|--7---5---0---3---5-----|--7---5---0---3---5-----|
E|------------------3--0--|------------------3--0--|

VERSE:
[FIG: 2a]
    Into the cold wind        A solo flight
e|------------------------|------------------------|
B|------------------------|------------------------|
G|-----0-----------0------|-----0-----------0------|
D|---4---4-------4---4----|---4---4-------4---4----|
A|-3-------3---3-------3--|-3-------3---3-------3--|
E|------------------------|------------------------|
   * * * * *pm * * * * *    * * * * *pm * * * * *

   Eyes on the heads-up     Radar source in sight
e|------------------------|------------------------|
B|------------------------|------------------------|
G|-----0-----------0------|-----0-----------0------|
D|---4---4-------4---4----|---4---4-------4---4----|
A|-3-------3---3-------3--|-3-------3---3-------3--|
E|------------------------|------------------------|
   * * * * *pm * * * * *    * * * * *pm * * * * *

e|------------------------|------------------------|
B|------------------------|------------------------|
G|------------------------|------------------------|
D|--2p0-------------------|--2p0----------+2~~~----|
A|------2p0------2---x-x--|------2p0---------------|
E|----------3p2--0---x-x--|----------3p0-----------|

[FIG: 2b]
 Crossin' the border at Rafha  He kills the lights
e|------------------------|------------------------|
B|------------------------|------------------------|
G|-----0-----------0------|-----0-----------0------|
D|---4---4-------4---4----|---4---4-------4---4----|
A|-3-------3---3-------3--|-3-------3---3-------3--|
E|------------------------|------------------------|
   * * * * *pm * * * * *    * * * * *pm * * * * *


  Straight into combat     One lone hero flies
e|------------------------|------------------------|
B|------------------------|------------------------|
G|-----0-----------0------|-----0-----------0------|
D|---4---4-------4---4----|---4---4-------4---4----|
A|-2-------2---2-------2--|-2-------2---2-------2--|
E|------------------------|------------------------|
   * * * * *pm * * * * *    * * * * *pm * * * * *


CHORUS:
[FIG: 3]
                   Fatal strike
e|------------------------|------------------------|
B|------------------------|------------------------|
G|--9------x-x--7~--------|--7------x-x--5~--------|
D|--9------x-x--7~--------|--7------x-x--5~--------|
A|--7------x-x--5~--------|--5------x-x--3~--------|
E|------------------------|------------------------|

      Why won't they lay it down
e|------------------------|------------------------|
B|------------------------|------------------------|
G|--9------x-x--7~--------|--7------x-x--5~--------|
D|--9------x-x--7~--------|--7------x-x--5~--2-----|
A|--7------x-x--5~--------|--5------x-x--3~--0-----|
E|------------------------|--------------------3-0-|

            It's a fatal strike
e|------------------------|------------------------|
B|------------------------|------------------------|
G|--9------x-x--7~--------|--7------x-x--5~--------|
D|--9------x-x--7~--------|--7------x-x--5~--------|
A|--7------x-x--5~--------|--5------x-x--3~--------|
E|------------------------|------------------------|

      They never saw him coming
e|------------------------|------------------------|
B|------------------------|------------------------|
G|--9------x-x--7~--------|--7------x-x--5~--------|
D|--9------x-x--7~--------|--7------x-x--5~--2-----|
A|--7------x-x--5~--------|--5------x-x--3~--0-----|
E|------------------------|--------------------3-0-|


[FIG: 1]

VERSE:
[FIG: 2a]
Re-checks his heading
And the fuel he's got
Eyes on the crosshairs
GBUs are hot
Closing the target

[FIG: 2b]
His heart races
Max range high
Laser is locked on
He drops and banks it high

CHORUS:
[FIG: 3]
Fatal strike
Why won't they lay it down
It's a fatal strike
They never saw him coming


e|------------------------|
B|------------------------|
G|------------------------|
D|------------------------|
A|-2--3--0--2--3--2-------|
E|-------------------3--0-|

SOLO:
[FIG: 3] sim


VERSE:
[FIG: 2a]
The night erupts in
A storm of fire
Hot metal tracers
Wingman holding tight

[FIG: 2b]
Makin' it out undetected
And homeward bound
Nighthawk heroes
Racing through the sky

CHORUS:
[FIG: 3]
Fatal strike
Why won't they lay it down
It's a fatal strike
They never saw him coming


OUTRO SOLO:
[FIG: 3] sim



e|------------------------|------------------------|
B|------------------------|------------------------|
G|------------------------|------------------------|
D|----------------------2-|-(2)--------------------|
A|-2--3--0--2--3--2-----2-|-(2)--------------------|
E|-------------------3--0-|-(0)--------------------|



| *  palm mute
| /  slide up
| \  slide down
| h  hammer-on
| p  pull-off
| ~  vibrato
| +  harmonic
| x  Mute note
===============================================================================

Tap to rate this tab
# A B C D E F G H I J K L M N O P Q R S T U V W X Y Z