Song name
# A B C D E F G H I J K L M N O P Q R S T U V W X Y Z

Michael Schenker - Rock And Roll Believer tab

-------------------------------------------------------------------------------
	    ROCK 'N' ROLL BELIEVER - Michael Schenker Group
-------------------------------------------------------------------------------
MSG
Rock And Roll Believer
From: Arachnophobiac (2003)
Tabbed by: malpka
Tuning: Standard


INTRO:
e|------------------
B|------------------
G|--5---------------
D|--5-------5-------
A|--3-------5-------
E|----------3-------

[FIG: 1a]
e|---------------------------------|---------------------------------|
B|-----------------------------0-1-|-----------------------------0-1-|
G|-----------------0h2p0---0-2-----|-----------------0h2p0---0-2-----|
D|---4p0---4---0h4-------4---------|---4p0---4---0h4-------4---------|
A|-3-----3---3---------------------|-3-----3---3---------------------|
E|---------------------------------|---------------------------------|
 |                                 |                                 |
e|---------------------------------|---------------------------------|
B|---------------------------------|---------------------------------|
G|--7---7---7---7---7---7---7---7--|--7---7---7---7---7---7---7---7--|
D|--7---7---7---7---7---7---7---7--|--7---7---7---7---7---7---7---7--|
A|--5---5---5---5---5---5---5---5--|--5---5---5---5---5---5---5---5--|
E|---------------------------------|---------------------------------|


e|---------------------------------|---------------------------------|
B|-----------------------------0-1-|-----------------------------0-1-|
G|-----------------0h2p0---0-2-----|-----------------0h2p0---0-2-----|
D|---4p0---4---0h4-------4---------|---4p0---4---0h4-------4---------|
A|-3-----3---3---------------------|-3-----3---3---------------------|
E|---------------------------------|---------------------------------|
 |                                 |                                 |
e|---------------------------------|---------------------------------|
B|---------------------------------|---------------------------------|
G|--7---7---7---7---7---7---7---7--|--7---7---7---7---5--------------|
D|--7---7---7---7---7---7---7---7--|--7---7---7---7---5-------5------|
A|--5---5---5---5---5---5---5---5--|--5---5---5---5---3-------5------|
E|---------------------------------|--------------------------3------|

[FIG: 1b]
e|---------------------------------|---------------------------------|
B|---------------------------------|---------------------------------|
G|---------------------------------|---------------------------------|
D|-----------------0h2p0-----------|-----------------0h2p0-----------|
A|---4p0---4---0h4-------4p0-------|---4p0---4---0h4-------4p0-------|
E|-3-----3---3---------------3-2-1-|-3-----3---3---------------3-2-1-|
 |                                 |                                 |
e|---------------------------------|---------------------------------|
B|---------------------------------|---------------------------------|
G|---------------------------------|---------------------------------|
D|--7---7---7---7---7---7---7---7--|--7---7---7---7---7---7---7--7---|
A|--7---7---7---7---7---7---7---7--|--7---7---7---7---7---7---7--7---|
E|--5---5---5---5---5---5---5---5--|--5---5---5---5---5---5---5--5---|

[FIG: 1c]
e|---------------------------------|------------------
B|---------------------------------|------------------
G|-------------4---0-------0-------|--5---------------
D|-0h3p0---0h3---3---3p0-----3p0---|--5-------5-------
A|-------4---------------4-------4-|--3-------5-------
E|---------------------------------|----------3-------
 |                                 |              
e|---------------------------------|------------------
B|---------------------------------|------------------
G|--7---7---7---7---7---7---7---7--|--5---------------
D|--7---7---7---7---7---7---7---7--|--5-------5-------
A|--5---5---5---5---5---5---5---5--|--3-------5-------
E|---------------------------------|----------3-------

VERSE:
[FIG: 2]
   In  my younger days             We used to rock all night
e|---------------------------------|---------------------------------|
B|---------------------------------|---------------------------------|
G|--2---2---4---2---2---2---4---2--|--2---2---4---2---2---2---4---2--|
D|--0---0---0---0---0---0---0---0--|--0---0---0---0---0---0---0---0--|
A|---------------------------------|---------------------------------|
E|---------------------------------|---------------------------------|
 |                                 |                                 |
e|---------------------------------|---------------------------------|
B|---------------------------------|---------------------------------|
G|---------------------------------|---------------------------------|
D|--7---7---9---7---7---7---9---7--|--7---7---9---7---7---7---9---7--|
A|--5---5---5---5---5---5---5---5--|--5---5---5---5---5---5---5---5--|
E|---------------------------------|---------------------------------|


   We all had that music in our souls
e|---------------------------------|---------------------------------|
B|---------------------------------|-----------------------------0-1-|
G|--2---2---4---2---2---2---4---2--|-----------------0h2p0---0-2-----|
D|--0---0---0---0---0---0---0---0--|---4p0---4---0h4-------4---------|
A|---------------------------------|-3-----3---3---------------------|
E|---------------------------------|---------------------------------|
 |                                 |                                 |
e|---------------------------------|---------------------------------|
B|---------------------------------|---------------------------------|
G|---------------------------------|------------------5--------------|
D|--7---7---9---7---7---7---9---7--|--7---7---9---7---5-------5------|
A|--5---5---5---5---5---5---5---5--|--5---5---5---5---3-------5------|
E|---------------------------------|--------------------------3------|


   Hangin' up in Sapphire,         Or off Old Baldy Road
e|---------------------------------|---------------------------------|
B|---------------------------------|---------------------------------|
G|--2---2---4---2---2---2---4---2--|--2---2---4---2---2---2---4---2--|
D|--0---0---0---0---0---0---0---0--|--0---0---0---0---0---0---0---0--|
A|---------------------------------|---------------------------------|
E|---------------------------------|---------------------------------|
 |                                 |                                 |
e|---------------------------------|---------------------------------|
B|---------------------------------|---------------------------------|
G|---------------------------------|---------------------------------|
D|--7---7---9---7---7---7---9---7--|--7---7---9---7---7---7---9---7--|
A|--5---5---5---5---5---5---5---5--|--5---5---5---5---5---5---5---5--|
E|---------------------------------|---------------------------------|


   That's where all us knuckleheads would go
e|---------------------------------|---------------------------------|
B|---------------------------------|-----------------------------0-1-|
G|--2---2---4---2---2---2---4---2--|-----------------0h2p0---0-2-----|
D|--0---0---0---0---0---0---0---0--|---4p0---4---0h4-------4---------|
A|---------------------------------|-3-----3---3---------------------|
E|---------------------------------|---------------------------------|
 |                                 |                                 |
e|---------------------------------|---------------------------------|
B|---------------------------------|---------------------------------|
G|---------------------------------|------------------5--------------|
D|--7---7---9---7---7---7---9---7--|--7---7---9---7---5-------5------|
A|--5---5---5---5---5---5---5---5--|--5---5---5---5---3-------5------|
E|---------------------------------|--------------------------3------|



   Bangin' to that cold steel        On into the night
e|---------------------------------|---------------------------------|
B|---------------------------------|---------------------------------|
G|---------------------------------|---------------------------------|
D|---------------------------------|---------------------------------|
A|--7---7---9---7---7---7---9---7--|--7---7---9---7---7---7---9---7--|
E|--5---5---5---5---5---5---5---5--|--5---5---5---5---5---5---5---5--|


   That's just the way we had to go             ...and still I...
e|---------------------------------|------------------
B|---------------------------------|------------------
G|---------------------------------|--5---------------
D|---------------------------------|--5-------5-------
A|--5---5---7---5---5---5---7---5--|--3-------5-------
E|--3---3---3---3---3---3---3---3--|----------3-------


CHORUS:
[FIG: 3]
                  I'm a rock & roll believer
e|------------------------|------------------------|
B|-------3----------3-----|-------3----------3-----|
G|----------2----------2--|----------0----------0--|
D|-0-4~---------3~~-------|------------------------|
A|------------------------|--2~~---------3~~-------|
E|------------------------|------------------------|
 |                        |                        |
e|------------------------|------------------------|
B|------------------------|------------------------|
G|--7~--------------------|--4~----------5~--------|
D|------------------------|--4~----------5~--------|
A|--5~----------3~--------|--2~----------3~--------|
E|------------------------|------------------------|

                         That's what I say
e|------------------------|------------------------|
B|-------3----------3-----|-------3----------3-----|
G|-0--------2----------2--|----------0----------0--|
D|---4~---------3~~-------|------------------------|
A|------------------------|--2~~---------3~~-------|
E|------------------------|------------------------|
 |                        |                        |
e|------------------------|------------------------|
B|------------------------|------------------------|
G|--7~--------------------|--4~----------5~--------|
D|------------------------|--4~----------5~--------|
A|--5~----------3~--------|--2~----------3~--------|
E|------------------------|------------------------|

                      Just a rock & roll believer
e|------------------------|------------------------|
B|-------3----------3-----|-------3----------3-----|
G|----------2----------2--|----------0----------0--|
D|-0-4~---------3~~-------|------------------------|
A|------------------------|--2~~---------3~~-------|
E|------------------------|------------------------|
 |                        |                        |
e|------------------------|------------------------|
B|------------------------|------------------------|
G|--7~--------------------|--4~----------5~--------|
D|------------------------|--4~----------5~--------|
A|--5~----------3~--------|--2~----------3~--------|
E|------------------------|------------------------|

                           It's the only way
e|------------------------|------------------------|
B|-------3----------3-----|-------3----------3-----|
G|-0--------2----------2--|----------0----------0--|
D|---4~---------3~~-------|------------------------|
A|------------------------|--2~~---------3~~-------|
E|------------------------|------------------------|
 |                        |                        |
e|------------------------|------------------------|
B|------------------------|------------------------|
G|--7~--------------------|--4~----------5~--------|
D|------------------------|--4~----------5~--------|
A|--5~----------3~--------|--2~----------3~--------|
E|------------------------|------------------------|



VERSE:
[FIG: 2]
Always been a rocker, Rebel tried & true
Grew up with music in my veins
Whailin' on them drumheads, non-stop everyday
Musta drove that neighborhood insane

And even though rock music of today just ain't the same
I'll always be there for the show, Yeah


CHORUS:
[FIG: 3]
I'm a rock & roll believer
That's what I say
Just a rock & roll believer
It's the only way

LEAD:
e|------------------------|------------------------|
B|------------------------|------------------------|
G|--/16--14--16--12~~-----|--/16--14--16--/19~~----|
D|------------------------|------------------------|
A|------------------------|------------------------|
E|------------------------|------------------------|

e|------------------------|------------------------|
B|------------------------|------------------------|
G|--/16--14-14--16--12~~--|-17-16h17p16-14-12-/14~~|
D|------------------------|------------------------|
A|------------------------|------------------------|
E|------------------------|------------------------|


e|------------------------|------------------------|
B|------------------------|------------------------|
G|--/16--14--16--12~~-----|--/16--14--16--/19~~----|
D|------------------------|------------------------|
A|------------------------|------------------------|
E|------------------------|------------------------|

e|------------------------|--22\---22\---22\-------|
B|--21b22~~~--------------|--------------22\-------|
G|------------------------|------------------------|
D|------------------------|------------------------|
A|------------------------|------------------------|
E|------------------------|------------------------|

SOLO:


LEAD:
e|------------------------|------------------------|
B|------------------------|------------------------|
G|--/16--14--16--12~~-----|--/16--14--16--/19~~----|
D|------------------------|------------------------|
A|------------------------|------------------------|
E|------------------------|------------------------|

e|------------------------|------------------------|
B|------------------------|------------------------|
G|--/16--14-14--16--12~~--|-17-16h17p16-14-12-/14~~|
D|------------------------|------------------------|
A|------------------------|------------------------|
E|------------------------|------------------------|


e|------------------------|------------------------|
B|------------------------|------------------------|
G|--/16--14--16--12~~-----|--/16--14--16--/19~~----|
D|------------------------|------------------------|
A|------------------------|------------------------|
E|------------------------|------------------------|

e|------------------------|------------------------|
B|--20~----19~----17~-----|--15~----13~----12~-----|
G|------------------------|------------------------|
D|------------------------|------------------------|
A|------------------------|------------------------|
E|------------------------|------------------------|



[FIG: 1a] sim

VERSE:
[FIG: 2]
Whenever I recall those reckless days gone by
All of them songs we used to play
Makes me wanna jump back and do it all again
Nothin' ever gonna take that thirst away

I'll always keep on rockin' & a-rollin' 'til I'm gone
That's just the way I've got to go, yeah

CHORUS:
[FIG: 3]
I'm a rock & roll believer
That's what I say
Just a rock & roll believer
It's the only way





| /  slide up
| \  slide down
| h  hammer-on
| p  pull-off
| ~  vibrato
| +  harmonic
| x  Mute note
===============================================================================

Tap to rate this tab
 
# A B C D E F G H I J K L M N O P Q R S T U V W X Y Z