Song name
# A B C D E F G H I J K L M N O P Q R S T U V W X Y Z

Michael Schenker - Attack Of The Mad Axeman tab

-------------------------------------------------------------------------------
		ATTACK OF THE MAD AXEMAN - Michael Schenker Group
-------------------------------------------------------------------------------
MSG
Attack Of The Mad Axeman
From: MSG (1981)
Tabbed by: malpka
Tuning: Standard


INTRO:
e|--------------------------------|--------------------------------|
B|--/13b15---------13~~~~---------|--13---15---17---15~~~~---------|
G|--------------------------------|--------------------------------|
D|--------------------------------|--------------------------------|
A|--------------------------------|--------------------------------|
E|--------------------------------|--------------------------------|
 |                                |                                |
e|--------------------------------|--------------------------------|
B|--------------------------------|--------------------------------|
G|-----------------5--------------|-----------------7--------------|
D|-----------------5--------------|-----------------7--------------|
A|--1----0---------3--------------|--3----0----3----5--------------|
E|------------3-------------------|--------------------------------|


e|--------------------------------|--------------------------------|
B|--15---17---18---17~---15\13~---|--/15~~~~-----------------------|
G|--------------------------------|--------------------------------|
D|--------------------------------|--------------------------------|
A|--------------------------------|--------------------------------|
E|--------------------------------|--------------------------------|
 |                                |                                |
e|--------------------------------|--------------------------------|
B|--------------------------------|--------------------------------|
G|-----------------5--------------|--7-----------------------------|
D|-----------------5--------------|--7-----------------------------|
A|--1----0---------3--------------|--5-----------------------------|
E|------------3-------------------|--------------------------------|



e|--/12b13---------12~~~~---------|--12---13---15---13~~~~---------|
B|--------------------------------|--------------------------------|
G|--------------------------------|--------------------------------|
D|--------------------------------|--------------------------------|
A|--------------------------------|--------------------------------|
E|--------------------------------|--------------------------------|
 |                                |                                |
e|--------------------------------|--------------------------------|
B|--/13b15---------13~~~~---------|--13---15---17---15~~~~---------|
G|--------------------------------|--------------------------------|
D|--------------------------------|--------------------------------|
A|--------------------------------|--------------------------------|
E|--------------------------------|--------------------------------|
 |                                |                                |
e|--------------------------------|--------------------------------|
B|--------------------------------|--------------------------------|
G|-----------------5--------------|-----------------7--------------|
D|-----------------5--------------|-----------------7--------------|
A|--1----0---------3--------------|--3----0----3----5--------------|
E|------------3-------------------|--------------------------------|


e|--13---15---17---17h18p17--\15~-|--/17~~~~-----------------------|
B|--------------------------------|--------------------------------|
G|--------------------------------|--------------------------------|
D|--------------------------------|--------------------------------|
A|--------------------------------|--------------------------------|
E|--------------------------------|--------------------------------|
 |                                |                                |
e|--------------------------------|--------------------------------|
B|--15---17---18---18h20p18--\17~-|--/18~~~~-----------------------|
G|--------------------------------|--------------------------------|
D|--------------------------------|--------------------------------|
A|--------------------------------|--------------------------------|
E|--------------------------------|--------------------------------|
 |                                |                                |
e|--------------------------------|--------------------------------|
B|--------------------------------|--------------------------------|
G|-----------------5--------------|--7-----------------------------|
D|-----------------5--------------|--7-----------------------------|
A|--1----0---------3--------------|--5-----------------------------|
E|------------3-------------------|--------------------------------|



                         A  Ha Ha!
e|--------------------------------|
B|--------------------------------|
G|--------------pick--------------|
D|------------scrapes-------------|
A|--------------------------------|
E|--------------------------------|


[FIG: 1]
e|--------------------------------|--------------------------------|
B|--------------------------------|----------------------5~~-------|
G|--------------------------------|----------------------5~~-------|
D|-----5-----3--------3-----------|-----5-----3----------5~~-------|
A|--------------3-4-5---1b--------|--------------3-4-5-------------|
E|--3-----3-----------------3--1--|--3-----3-----------------------|

e|--------------------------------|--------------------------------|
B|--------------------------------|----------------------ad lib----|
G|--------------------------------|-----------------------fills----|
D|-----5-----3--------3-----------|-----5-----3--------------------|
A|--------------3-4-5---1b--------|--------------3-4-5-------------|
E|--3-----3-----------------3--1--|--3-----3-----------------------|


VERSE:
[FIG: 1]
Sneakin' 'round the backstreets  Don't stay out too late
He's got something he wants to give to you
He calls in his dreams with his phantom screams
Hide from shadows in the night Only day will save you


CHORUS:
[FIG: 2]
 Gotta watch the attack of the mad axeman He can take you anytime he pleases
e|--------------------------------|--------------------------------|
B|--------------------------------|--------------------------------|
G|--------------------------------|--------------------------------|
D|--3--3-----------3--------------|--3--3--3--------3--3-----------|
A|--1--1--1-0---0--1--5--5--5--0--|--1--1--1-0---0--1--1--1-3-1-0--|
E|------------3-------3--3--3-----|------------3-------------------|

                        He wants to make you bleed
e|--------------------------------|--------------------------------|
B|--------------------------------|--------------------------------|
G|--------------------------------|--------------------------------|
D|--3--3-----------3--------------|--3--3--3--------3--7~----------|
A|--1--1--1-0---0--1--5--5--5--0--|--1--1--1-0---0--1--5~----------|
E|------------3-------3--3--3-----|------------3-------------------|


VERSE:
[FIG: 1]
Around town his laughter sounds Deep into the night
That flash of knife in the flickering light's for you
He knows when he's down But he's got to have more
Cuz he thrives on excess celebration


CHORUS:
[FIG: 2]
Gotta watch the attack of the mad axeman
He can take you any time he pleases
He wants to make you bleed


INTERLUDE:
[FIG: 3]
                Time after time            You can
e|--6-----------------------------|--8-----------------------------|
B|--8-----------------------------|--10----------------------------|
G|--8-----------------------------|--10----------------------------|
D|--8-----------------------------|--10----------------------------|
A|--6-----------------------------|--8-----------------------------|
E|--------------------------------|--------------------------------|

    See him
e|--10----------------------------|--------------------------------|
B|--11----------------------------|--------------------------------|
G|--10----------------------------|--8\----------------------------|
D|--12----------------------------|--8\---8\-----3-----------------|
A|--10----------------------------|--6\---8\-----3-----------------|
E|--------------------------------|-------6\-----1-----------------|


        He's only looking for      fun
e|--6-----------------------------|--8-----------------------------|
B|--8-----------------------------|--10----------------------------|
G|--8-----------------------------|--10----------------------------|
D|--8-----------------------------|--10----------------------------|
A|--6-----------------------------|--8-----------------------------|
E|--------------------------------|--------------------------------|

    In his dreams
e|--------------------------------|--------------------------------|
B|--11------------10--------------|--------------------------------|
G|--12------------10--------------|--8------------5----------------|
D|--12------------10--------------|--8------------5----------------|
A|--10------------8---------------|--6------------3----------------|
E|--------------------------------|--------------------------------|


SOLO:

e|--------------------------------|--------------------------------|
B|---/      /10------10/13~~~~~~~-|-----------------------10\6~~---|
G|--------------------------------|--------------------------------|
D|--------------------------------|--------------------------------|
A|--------------------------------|--------------------------------|
E|--------------------------------|--------------------------------|

e|--------------------------------|--------------------------------|
B|-(6)~~~~~---5  /  6  /   8   \  |  5~~~~-------------------------|
G|--------------------------------|--------------------------------|
D|--------------------------------|--------------------------------|
A|--------------------------------|--------------------------------|
E|--------------------------------|--------------------------------|


e|--------------------------------|--------------------------------|
B|---10~~~~--------------/   13~~-|-(13)~~~~~~~~~---------10\6~~---|
G|--------------------------------|--------------------------------|
D|--------------------------------|--------------------------------|
A|--------------------------------|--------------------------------|
E|--------------------------------|--------------------------------|

e|--------------------------------|--------------------------------|
B|-(6)~~~~~---5  /  6  /   8   \  |  5~~~~---------------5 / 8-----|
G|--------------------------------|--------------------------------|
D|--------------------------------|--------------------------------|
A|--------------------------------|--------------------------------|
E|--------------------------------|--------------------------------|



[FIG: 3]
              Time after time in the wings         You can
e|--6-----------------------------|--8-----------------------------|
B|--8-----------------------------|--10----------------------------|
G|--8-----------------------------|--10----------------------------|
D|--8-----------------------------|--10----------------------------|
A|--6-----------------------------|--8-----------------------------|
E|--------------------------------|--------------------------------|

    See him
e|--10----------------------------|--------------------------------|
B|--11----------------------------|--------------------------------|
G|--10----------------------------|--8\----------------------------|
D|--12----------------------------|--8\---8\-----3-----------------|
A|--10----------------------------|--6\---8\-----3-----------------|
E|--------------------------------|-------6\-----1-----------------|


        He's only looking for      fun
e|--6-----------------------------|--8-----------------------------|
B|--8-----------------------------|--10----------------------------|
G|--8-----------------------------|--10----------------------------|
D|--8-----------------------------|--10----------------------------|
A|--6-----------------------------|--8-----------------------------|
E|--------------------------------|--------------------------------|

    In his dreams
e|--------------------------------|--------------------------------|
B|--11------------10--------------|--------------------------------|
G|--12------------10--------------|--8------------5----------------|
D|--12------------10--------------|--8------------5----------------|
A|--10------------8---------------|--6------------3----------------|
E|--------------------------------|--------------------------------|

    Aaaaahh
e|--6-----------------------------|-(6)----------------------------|
B|--8-----------------------------|-(8)----------------------------|
G|--8-----------------------------|-(8)----------------------------|
D|--8-----------------------------|-(8)----------------------------|
A|--6-----------------------------|-(6)----------------------------|
E|--------------------------------|--------------------------------|


  Watch the attack of the mad axeman
e|--------------------------------|--------------------------------|
B|--------------------------------|--------------------------------|
G|--------------------------------|--------------------------------|
D|--3--3-----------3--------------|--------------------------------|
A|--1--1--1-0---0--1--5--5--------|--------------------------------|
E|------------3-------3--3--3~~~~-|-(3)~~~~~~~~~~~~~---------------|


SOLO:
[FIG: 4]
e|--------------------------------|--------------------------------|
B|--------------------------------|--------------------------------|
G|--------------------------------|--------------------------------|
D|--5-----------8----------10-----|--------------------------10\---|
A|--5-------x---8----------10-----|--10--10--10--10--10--10--10\---|
E|--3-------x---6-------x---8-----|--8---8---8---8---8---8----8\---|



OUTRO:
e|--------------------------------|--------------------------------|
B|--------------------------------|--------------------------------|
G|--8\------------5~~-------------|--------------------------------|
D|--8\------------5~~-------------|--8\------------5~~-------------|
A|--6\------------3~~-------------|--8\------------5~~-------------|
E|--------------------------------|--6\------------3~~-------------|

e|--------------------------------|--------------------------------|
B|--------------------------------|--------------------------------|
G|--8\------------5~~-------------|--------------------------------|
D|--8\------------5~~-------------|--/8~--7h8p7\5----5-------------|
A|--6\------------3~~-------------|---------------8-------5--/8~~--|
E|--------------------------------|---------------------6----------|

[FIG: 5]
x2
e|--------------------------------|--------------------------------|
B|--------------------------------|--------------------------------|
G|--8\------------5~~-------------|--------------------------------|
D|--8\------------5~~-------------|--8\------------5~~-------------|
A|--6\------------3~~-------------|--8\------------5~~-------------|
E|--------------------------------|--6\------------3~~-------------|

e|--------------------------------|--------------------------------|
B|--------------------------------|--------------------------------|
G|--8\------------5~~-------------|--------------------------------|
D|--8\------------5~~-------------|--5-----------------------------|
A|--6\------------3~~-------------|--5-----------------------------|
E|--------------------------------|--3-----------------------------|


e|--------------------------------|--------------------------------|
B|--------------------------------|--------------------------------|
G|--8\------------5~~-------------|--------------------------------|
D|--8\------------5~~-------------|--8\------------5~~-------------|
A|--6\------------3~~-------------|--8\------------5~~-------------|
E|--------------------------------|--6\------------3~~-------------|

e|--------------------------------|--------------------------------|
B|--------------------------------|--------------------------------|
G|--8\------------5~~-------------|--8-----------------------------|
D|--8\------------5~~-------------|--8-----------------------------|
A|--6\------------3~~-------------|--6-----------------------------|
E|--------------------------------|--------------------------------|


e|--------------------------------|--------------------------------|
B|--------------------------------|--------------------------------|
G|--------------------------------|--------------------------------|
D|--3-----------------------------|--5-----------------------------|
A|--3-----------------------------|--5-----------------------------|
E|--1-----------------------------|--3-----------------------------|

e|--------------------------------|--------------------------------|
B|--------------------------------|--------------------------------|
G|--------------------------------|--------------------------------|
D|-(5)----------------------------|--5----5\-----------------------|
A|-(5)----------------------------|--5----5\-----------------------|
E|-(3)----------------------------|--3----3\-----------------------|


| /  slide up
| \  slide down
| h  hammer-on
| p  pull-off
| ~  vibrato
| +  harmonic
| x  Mute note
===============================================================================
Tap to rate this tab
 
# A B C D E F G H I J K L M N O P Q R S T U V W X Y Z