Song name
# A B C D E F G H I J K L M N O P Q R S T U V W X Y Z

Michael Schenker - Cry For The Nations tab

-------------------------------------------------------------------------------
		CRY FOR THE NATIONS - Michael Schenker Group
-------------------------------------------------------------------------------
MSG
Cry For The Nations
From: The Michael Schenker Group (1980)
Tabbed by: malpka
Tuning: Standard

INTRO:
e|------------------------|------------------------|
B|--13-13-13-12---10--10--|----------------10--12--|
G|------------------12----|--11-9------------------|
D|------------------------|-------12---------------|
A|------------------------|------------------------|
E|------------------------|------------------------|

e|------------------------|------------------------|
B|--13-13-13-12---10--10--|----------------10--12--|
G|------------------12----|------------------------|
D|------------------------|------------------------|
A|------------------------|------------------------|
E|------------------------|------------------------|


e|------------------------|------------------------|
B|--13-15-13-12---10--10--|------------------------|
G|------------------12----|--11-9------------------|
D|------------------------|-------12-----------12--|
A|------------------------|------------------------|
E|------------------------|------------------------|

e|------------------------|------------------------|
B|-----------/12~~--------|------------------------|
G|-----12-----------------|----------------10--12--|
D|--14--------------------|------------------------|
A|------------------------|------------------------|
E|------------------------|------------------------|


e|------------------------|------------------------|
B|--13-13-13-12---10--10--|----------------10--12--|
G|------------------12----|--11-9------------------|
D|------------------------|-------12---------------|
A|------------------------|------------------------|
E|------------------------|------------------------|

e|------------------------|------------------------|
B|--13-13-13-12---10--10--|----------------10--12--|
G|------------------12----|------------------------|
D|------------------------|------------------------|
A|------------------------|------------------------|
E|------------------------|------------------------|


e|------------------------|------------------------|
B|--13-15-13-12---10--10--|------------------------|
G|------------------12----|--11-9------------------|
D|------------------------|-------12-----------12--|
A|------------------------|------------------------|
E|------------------------|------------------------|

e|------------------------|------------------------|
B|-----------/12~~--------|--12\-------------------|
G|-----12-----------------|--12\-------------------|
D|--14--------------------|------------------------|
A|------------------------|------------------------|
E|------------------------|------------------------|


with [FIG: 1]
x2
e|------------------------|------------------------|
B|------------------------|------------------------|
G|12b14r12b14r12b14r12b14r|12b14r12b14r12b14r12b14r|
D|------------------------|------------------------|
A|------------------------|------------------------|
E|------------------------|------------------------|
 |                        |                        |
e|------------------------|------------------------|
B|--5-5------5-----5-5-5--|--5-5------3-3--7-x-7-7-|
G|--5-5------5-----5-5-5--|--5-5--x---4-4--7-x-7-7-|
D|--7-7---x--7---x-7-7-7--|--5-5--x---5-5--7-x-7-7-|
A|--7-7---x--7---x-7-7-7--|--3-3--x---5-5--5-x-5-5-|
E|--5-5---x--5---x-5-5-5--|-----------3-3----------|


VERSE:
[FIG: 2]
   A  time of fear             So long ago
e|--------------------------------|--------------------------------|
B|--------------------------------|--------------------------------|
G|--------------------------------|---------------------7-7---7-7--|
D|-2-------2-------2-------2------|-2-------2-------2---9-9---9-9--|
A|-0--0-0--0--0-0--0--0-0--0--0-0-|-0--0-0--0--0-0--0-------0------|
E|--------------------------------|--------------------------------|

   Lived a man                  In Salon
e|--------------------------------|--------------------------------|
B|--------------------------------|---------5-----------8-8---8-8--|
G|--------------------------------|---------5-----------7-7---7-7--|
D|-2-------2-------2-------2------|-2-------5-------x---9-9-x-9-9--|
A|-0--0-0--0--0-0--0--0-0--0--0-0-|-0--0-0--x--0-0--x-------0------|
E|--------------------------------|--------------------------------|


   And in his dark and         Magic room
e|--------------------------------|--------------------------------|
B|--------------------------------|--------------------------------|
G|--------------------------------|---------------------4-x---4-4--|
D|-2-------2-------2-------2------|-2-------2-------x---5-5-x-5-5--|
A|-0--0-0--0--0-0--0--0-0--0--0-0-|-0--0-0--0--0-0--x-----5-x------|
E|--------------------------------|--------------------------------|

    He gazed on times             To come
e|--------------------------------|--------------------------------|
B|--------------------------------|---------------------3-----3-3--|
G|--------------------------------|---------------------4-4---4-4--|
D|-2-------2-------2-------2------|-2-------2-------x---5-5-x-5-5--|
A|-0--0-0--0--0-0--0--0-0--0--0-0-|-0--0-0--0--0-0--x-----5-x------|
E|--------------------------------|--------------------------------|


PRE-CHORUS:
[FIG: 3]
       All is then       revealed
e|------------------------|------------------------|
B|--3----------------3-3--|--3---------------------|
G|--4----------------4-4--|--4---------------------|
D|--5----------------5-5--|--5------------------3--|
A|--5----------------5-5--|--5------------------3--|
E|--3----------------3-3--|--3------------------1--|

  And visions on water speak true
e|------------------------|------------------------|
B|------------------------|------------------------|
G|------------------------|------------------------|
D|--3--3------------------|--2---2-------2---2-----|
A|--3--3------------------|--2---2---x---2---2---x-|
E|--1--1------------------|--0---0---x---0---0---x-|


CHORUS:
[FIG: 1]
Cry
For the nations
Cry
For the nations


VERSE:
[FIG: 2]
A flash of light, fills the night,
And chills the blood in his veins,
Will the power possess his mind,
Soul in chains


PRE-CHORUS:
[FIG: 3]
All is then revealed
Tears that he shed were for you


BRIDGE:
[FIG: 4]
   Battles of king and of fools
e|------------------------|------------------------|
B|------------------------|------------------------|
G|--5---------------------|--7---------------------|
D|--5------------5--------|--7---------------------|
A|--3------------5--------|--5---------------------|
E|---------------3--------|------------------------|

  And changes in ways he once knew
e|------------------------|------------------------|
B|------------------------|------------------------|
G|--5---------------------|--7---------------------|
D|--5------------5--------|--7---------------------|
A|--3------------5--------|--5---------------------|
E|---------------3--------|------------------------|

   Pages of days fade away
e|------------------------|------------------------|
B|------------------------|------------------------|
G|--5---------------------|--7---------------------|
D|--5------------5--------|--7---------------------|
A|--3------------5--------|--5---------------------|
E|---------------3--------|------------------------|

    He's lost in time
e|------------------------|------------------------|
B|------------------------|------------------------|
G|--5---------------------|--7/--------------------|
D|--5------------5--------|--7/--------------------|
A|--3------------5--------|--5/--------------------|
E|---------------3--------|------------------------|


SOLO:
[FIG: 2] sim


[FIG: 5]
x4
e|--22b24-22b24---22br----|--22br-br-br-22b26~-\---|
B|------------------------|------------------------|
G|------------------------|------------------------|
D|------------------------|------------------------|
A|------------------------|------------------------|
E|------------------------|------------------------|
 |                        |                        |
e|------------------------|------------------------|
B|------------------------|------------------------|
G|--2--2------------------|------------------7-----|
D|--2--2------------------|------------------7-----|
A|--0--0------------------|------------------5-----|
E|------------------------|------------------------|

e|----17---17---17--------|------------------------|
B|-22b--22b--22b--22b25-b-|-17---------------------|
G|------------------------|--20-19-17--------------|
D|------------------------|---------19-17----------|
A|------------------------|-------------19-18-17---|
E|------------------------|---------------------19b|
 |                        |                        |
e|------------------------|------------------------|
B|------------------------|------------------------|
G|--2--2------------------|------------------7-----|
D|--2--2------------------|------------------7-----|
A|--0--0------------------|------------------5-----|
E|------------------------|------------------------|


e|------------------------|------------------------|
B|--10b12-10b13--r--------|------------------------|
G|----------------------9-|-8-7----7b9-------------|
D|------------------------|-----10----------5~~~~--|
A|------------------------|------------------------|
E|------------------------|------------------------|
 |                        |                        |
e|------------------------|------------------------|
B|------------------------|------------------------|
G|--2--2------------------|------------------7-----|
D|--2--2------------------|------------------7-----|
A|--0--0------------------|------------------5-----|
E|------------------------|------------------------|

e|------------------------|------------------------|
B|------------------------|------------------------|
G|------------------------|------------------------|
D|------------------------|------------------------|
A|--5b---5b7---5b--r~~----|--5--3---5p3------------|
E|------------------------|---------------5~~~~~---|
 |                        |                        |
e|------------------------|------------------------|
B|------------------------|------------------------|
G|--2--2------------------|------------------7-----|
D|--2--2------------------|------------------7-----|
A|--0--0------------------|------------------5-----|
E|------------------------|------------------------|


CHORUS/OUTRO SOLO:
[FIG: 1] sim




| /  slide up
| \  slide down
| h  hammer-on
| p  pull-off
| ~  vibrato
| +  harmonic
| x  Mute note
===============================================================================
Tap to rate this tab
# A B C D E F G H I J K L M N O P Q R S T U V W X Y Z