Song name
# A B C D E F G H I J K L M N O P Q R S T U V W X Y Z

Michael Schenker - Dust To Dust tab

-------------------------------------------------------------------------------
			     MICHAEL SCHENKER GROUP
                                  Dust To Dust
-------------------------------------------------------------------------------
Tabbed by Email:sfaurot@hotmail.com

Tuning:standard
...missing some leads and of course the solo

e|-----------------------------------|-----------------------------------|
B|-----------------------------------|-----------------------------------|
G|-----------------------------------|-----------------------------------|
D|-2p0-----4h5-----2p0---------------|-2p0-----4h5-----2p0---------------|
A|-------------------------0h2p0-----|-------------------------0h2p0-----|
E|-----0-0-----0-0-----0-0-------3p0-|-----0-0-----0-0-----0-0-------3p0-|
 |				     |					 |
 |				     |					 |
e|-----------------------------------|-----------------------------------|
B|-----------------------------------|-----------------------------------|
G|-9---------------------------------|-7---------------------------------|
D|-9---------------------------------|-7---------------------------------|
A|-7---------------------------------|-5---------------------------------|
E|-0---------------------------------|-----------------------------------|

e|-----------------------------------|-----------------------------------|
B|-----------------------------------|-----------------------------------|
G|-----------------------------------|-----------------------------------|
D|-2p0-----4h5-----2p0---------------|-2p0-----4h5-----2p0---0-2p0-------|
A|-------------------------0h2p0-----|-----------------------------2p0---|
E|-----0-0-----0-0-----0-0-------3p0-|-----0-0-----0-0-----0-----------3-|
 |				     |					 |
 |				     |					 |
e|-----------------------------------|-----------------------------------|
B|-----------------------------------|-----------------------------------|
G|-5---------------------------------|-----------------------------------|
D|-5---------------------------------|-2---------------------------------|
A|-3---------------------------------|-2---------------------------------|
E|-----------------------------------|-0---------------------------------|



e|-----------------------------------|--------------------------------14-|
B|-/17~~-----------------------15-17-|-15~~------------------------17----|
G|-----------------------------------|-----------------------------------|
D|-----------------------------------|-----------------------------------|
A|-----------------------------------|-----------------------------------|
E|-----------------------------------|-----------------------------------|
 |				     |					 |
 |				     |					 |
e|-----------------------------------|-----------------------------------|
B|-----------------------------------|-----------------------------------|
G|-----------------------------------|-----------------------------------|
D|-2p0-----4h5-----2p0---------------|-2p0-----4h5-----2p0---------------|
A|-------------------------0h2p0-----|-------------------------0h2p0-----|
E|-----0-0-----0-0-----0-0-------3p0-|-----0-0-----0-0-----0-0-------3p0-|
 |				     |					 |
 |				     |					 |
e|-----------------------------------|-----------------------------------|
B|-----------------------------------|-----------------------------------|
G|-9---------------------------------|-7---------------------------------|
D|-9---------------------------------|-7---------------------------------|
A|-7---------------------------------|-5---------------------------------|
E|-0---------------------------------|-----------------------------------|


e|-15~~------------------17brp15h17~-|-----------------------------------|
B|-----------------------------------|-----------------------------------|
G|-----------------------------------|-----------------------------------|
D|-----------------------------------|-----------------------------------|
A|-----------------------------------|-----------------------------------|
E|-----------------------------------|-----------------------------------|
 |				     |					 |
 |				     |					 |
e|-----------------------------------|-----------------------------------|
B|-----------------------------------|-----------------------------------|
G|-----------------------------------|-----------------------------------|
D|-2p0-----4h5-----2p0---------------|-2p0-----4h5-----2p0---0-2p0-------|
A|-------------------------0h2p0-----|-----------------------------2p0---|
E|-----0-0-----0-0-----0-0-------3p0-|-----0-0-----0-0-----0-----------3-|
 |				     |					 |
 |				     |					 |
e|-----------------------------------|-----------------------------------|
B|-----------------------------------|-----------------------------------|
G|-5---------------------------------|-----------------------------------|
D|-5---------------------------------|-2---------------------------------|
A|-3---------------------------------|-2---------------------------------|
E|-----------------------------------|-0---------------------------------|


    Dust    to    dust   so   they    Say...
    Day   by   day    life    goes    On...
e|-----------------------------------|-----------------------------------|
B|-----------------------------------|-----------------------------------|
G|-----------------------------------|-----------------------------------|
D|-2p0-----4h5-----2p0---------------|-2p0-----4h5-----2p0---------------|
A|-------------------------0h2p0-----|-------------------------0h2p0-----|
E|-----0-0-----0-0-----0-0-------3p0-|-----0-0-----0-0-----0-0-------3p0-|
 |				     |					 |
 |				     |					 |
e|-----------------------------------|-----------------------------------|
B|-----------------------------------|-----------------------------------|
G|-9---------------------------------|-7---------------------------------|
D|-9---------------------------------|-7---------------------------------|
A|-7---------------------------------|-5---------------------------------|
E|-0---------------------------------|-----------------------------------|

    I    will   return    to    the   Sea...
    Perhaps  it's   heartache   and   Pain...
e|-----------------------------------|-----------------------------------|
B|-----------------------------------|-----------------------------------|
G|-----------------------------------|-----------------------------------|
D|-2p0-----4h5-----2p0---------------|-2p0-----4h5-----2p0---0-2p0-------|
A|-------------------------0h2p0-----|-----------------------------2p0---|
E|-----0-0-----0-0-----0-0-------3p0-|-----0-0-----0-0-----0-----------3-|
 |				     |					 |
 |				     |					 |
e|-----------------------------------|-----------------------------------|
B|-----------------------------------|-----------------------------------|
G|-5---------------------------------|-----------------------------------|
D|-5---------------------------------|-2---------------------------------|
A|-3---------------------------------|-2---------------------------------|
E|-----------------------------------|-0---------------------------------|


  I'm    in    the    dark,     Looking  for  a  way
e|-----------------------------------|-----------------------------------|
B|-----------------------------------|-----------------------------------|
G|------------------------------7----|------------------------------7----|
D|----0-2p0----0-2p0------------7----|----0-2p0----0-2p0------------7----|
A|----------2--------2p0--------5----|----------2--------2p0--------5----|
E|-0----------------------3-xx-------|-0----------------------3-xx-------|


  I   miss   the   mark   yet   Again       each           Day
e|-----------------------------------|-----------------------------------|
B|-----------------------------------|-----------------------------------|
G|-----------------------------------|------------------------------7----|
D|----0-2p0----0-2p0------------5----|----0-2p0----0-2p0------------7----|
A|----------2--------2p0--------5----|----------2--------2p0--------5----|
E|-0----------------------3-xx--3----|-0----------------------3-xx-------|


    Wave    by    wave           Roller    by    roller
e|-----------------------------------|-----------------------------------|
B|-----------------------------------|-----------------------------------|
G|-------------------------------7---|-------------------------------7---|
D|----0-2p0----0-2p0-------------7---|----0-2p0----0-2p0-------------7---|
A|----------2--------2p0---------5---|----------2--------2p0---------5---|
E|-0----------------------3-xx-------|-0----------------------3-xx-------|
 |				     |					 |
 |				     |					 |
e|-----------------------------------|-----------------------------------|
B|-----------------------------------|-----------------------------------|
G|-9-----------------------------7---|-9-----------------------------7---|
D|-9-----------------------------7---|-9-----------------------------7---|
A|-7-----------------------------5---|-7-----------------------------5---|
E|-----------------------------------|-----------------------------------|

    The      sea    repeats         It's    song..
e|-----------------------------------|-----------------------------------|
B|-----------------------------------|-----------------------------------|
G|-----------------------------------|------------------------------7----|
D|----0-2p0----0-2p0-------------5---|----0-2p0----0-2p0------------7----|
A|----------2--------2p0---------5---|----------2--------2p0--------5----|
E|-0----------------------3-xx---3---|-0----------------------3-xx-------|
 |				     |					 |
 |				     |					 |
e|-----------------------------------|-----------------------------------|
B|-----------------------------------|-----------------------------------|
G|-5---------------------------------|-------------------------------7---|
D|-5-----------------------------5---|-2-----------------------------7---|
A|-3-----------------------------5---|-2-----------------------------5---|
E|-------------------------------3---|-0---------------------------------|


x2
  I'm at the end of the line           I may be falling and I
e|-----------------------------------|-----------------------------------|
B|-----------------------------------|-----------------------------------|
G|-----------------------------------|-----------------------------------|
D|-2p0-----4h5-----2p0---------------|-2p0-----4h5-----2p0---------------|
A|-------------------------0h2p0-----|-------------------------0h2p0-----|
E|-----0-0-----0-0-----0-0-------3p0-|-----0-0-----0-0-----0-0-------3p0-|
 |				     |					 |
 |				     |					 |
e|-----------------------------------|-----------------------------------|
B|-----------------------------------|-----------------------------------|
G|-----------------------------------|-----------------------------------|
D|-2---------------------------------|-5---------------------------------|
A|-2---------------------------------|-5---------------------------------|
E|-0---------------------------------|-3---------------------------------|

   Don't know                          How long it takes
e|-----------------------------------|-----------------------------------|
B|-----------------------------------|-----------------------------------|
G|-----------------------------------|-----------------------------------|
D|-2p0-----4h5-----2p0---------------|-2p0-----4h5-----2p0---0-2p0-------|
A|-------------------------0h2p0-----|-----------------------------2p0---|
E|-----0-0-----0-0-----0-0-------3p0-|-----0-0-----0-0-----0-----------3-|
 |				     |					 |
 |				     |					 |
e|-----------------------------------|-----------------------------------|
B|-----------------------------------|-----------------------------------|
G|-5---------------------------------|-7---------------------------------|
D|-5---------------------------------|-7---------------------------------|
A|-3---------------------------------|-5---------------------------------|
E|-----------------------------------|-----------------------------------|


e|-----------------------------------|-----------------------------------|
B|-----------------------------------|-----------------------------------|
G|------------------------------7----|------------------------------7----|
D|----0-2p0----0-2p0------------7----|----0-2p0----0-2p0------------7----|
A|----------2--------2p0--------5----|----------2--------2p0--------5----|
E|-0----------------------3-xx-------|-0----------------------3-xx-------|

e|-----------------------------------|-----------------------------------|
B|-----------------------------------|-----------------------------------|
G|-----------------------------------|------------------------------7----|
D|----0-2p0----0-2p0------------5----|----0-2p0----0-2p0------------7----|
A|----------2--------2p0--------5----|----------2--------2p0--------5----|
E|-0----------------------3-xx--3----|-0----------------------3-xx-------|


  Dust   to   dust               So they say  
e|-----------------------------------|-----------------------------------|
B|-----------------------------------|-----------------------------------|
G|------------------------------7----|------------------------------7----|
D|----0-2p0----0-2p0------------7----|----0-2p0----0-2p0------------7----|
A|----------2--------2p0--------5----|----------2--------2p0--------5----|
E|-0----------------------3-xx-------|-0----------------------3-xx-------|

  My   body   gone             My   soul   will   remain                  
e|-----------------------------------|-----------------------------------|
B|-----------------------------------|-----------------------------------|
G|-----------------------------------|------------------------------7----|
D|----0-2p0----0-2p0------------5----|----0-2p0----0-2p0------------7----|
A|----------2--------2p0--------5----|----------2--------2p0--------5----|
E|-0----------------------3-xx--3----|-0----------------------3-xx-------|



                I'm in the dark   Looking for a way
e|----------------------------|----------------------------|
B|----------------------------|----------------------------|
G|--5-------------------------|----------------------------|
D|--5-------------------------|--2-------------------------|
A|--3--3--3--3----2-----------|--2-------------------------|
E|----------------3--3--3--3--|--0-------------------------|

  I miss the mark yet again     Each day
e|----------------------------|----------------------------|
B|----------------------------|----------------------------|
G|--5-------------------------|----------------------------|
D|--5-------------------------|--2-------------------------|
A|--3--3--3--3----2-----------|--2-------------------------|
E|----------------3--3--3--3--|--0-------------------------|



  I'm at the end of the line           I may be falling and I
e|-----------------------------------|-----------------------------------|
B|-----------------------------------|-----------------------------------|
G|-----------------------------------|-----------------------------------|
D|-2p0-----4h5-----2p0---------------|-2p0-----4h5-----2p0---------------|
A|-------------------------0h2p0-----|-------------------------0h2p0-----|
E|-----0-0-----0-0-----0-0-------3p0-|-----0-0-----0-0-----0-0-------3p0-|
 |				     |					 |
 |				     |					 |
e|-----------------------------------|-----------------------------------|
B|-----------------------------------|-----------------------------------|
G|-----------------------------------|-----------------------------------|
D|-2---------------------------------|-5---------------------------------|
A|-2---------------------------------|-5---------------------------------|
E|-0---------------------------------|-3---------------------------------|

   Don't know                          How long it takes
e|-----------------------------------|-----------------------------------|
B|-----------------------------------|-----------------------------------|
G|-----------------------------------|-----------------------------------|
D|-2p0-----4h5-----2p0---------------|-2p0-----4h5-----2p0---0-2p0-------|
A|-------------------------0h2p0-----|-----------------------------2p0---|
E|-----0-0-----0-0-----0-0-------3p0-|-----0-0-----0-0-----0-----------3-|
 |				     |					 |
 |				     |					 |
e|-----------------------------------|-----------------------------------|
B|-----------------------------------|-----------------------------------|
G|-5---------------------------------|-7---------------------------------|
D|-5---------------------------------|-7---------------------------------|
A|-3---------------------------------|-5---------------------------------|
E|-----------------------------------|-----------------------------------|

  I'm at the end of the line           I may be falling and I
e|-----------------------------------|-----------------------------------|
B|-----------------------------------|-----------------------------------|
G|-----------------------------------|-----------------------------------|
D|-2p0-----4h5-----2p0---------------|-2p0-----4h5-----2p0---------------|
A|-------------------------0h2p0-----|-------------------------0h2p0-----|
E|-----0-0-----0-0-----0-0-------3p0-|-----0-0-----0-0-----0-0-------3p0-|
 |				     |					 |
 |				     |					 |
e|-----------------------------------|-----------------------------------|
B|-----------------------------------|-----------------------------------|
G|-----------------------------------|-----------------------------------|
D|-2---------------------------------|-5---------------------------------|
A|-2---------------------------------|-5---------------------------------|
E|-0---------------------------------|-3---------------------------------|

   Don't know                          How long it takes
e|-----------------------------------|-----------------------------------|
B|-----------------------------------|-----------------------------------|
G|-----------------------------------|-----------------------------------|
D|-2p0-----4h5-----2p0---------------|-2p0-----4h5-----2p0---0-2p0-------|
A|-------------------------0h2p0-----|-----------------------------2p0---|
E|-----0-0-----0-0-----0-0-------3p0-|-----0-0-----0-0-----0-----------3-|
 |				     |					 |
 |				     |					 |
e|-----------------------------------|-----------------------------------|
B|-----------------------------------|-----------------------------------|
G|-5---------------------------------|-7---------------------------------|
D|-5---------------------------------|-7---------------------------------|
A|-3---------------------------------|-5---------------------------------|
E|-----------------------------------|-----------------------------------|


    I'm in the dark                    Looking for a way
e|-----------------------------------|-----------------------------------|
B|-----------------------------------|-----------------------------------|
G|-----------------------------------|-----------------------------------|
D|-----------------------------------|-----------------------------------|
A|-----------------------------------|-----------------------------------|
E|-----------------------------------|-----------------------------------|
 |				     |					 |
 |				     |					 |
e|-----------------------------------|-----------------------------------|
B|-----------------------------------|-----------------------------------|
G|--7--------------------------------|--5--------------------------------|
D|--7--------------------------------|--5--------------------------------|
A|--5--------------------------------|--3--------------------------------|
E|-----------------------------------|--3--------------------------------|


  I   miss   the   mark                Each     Day
e|-----------------------------------|-----------------------------------|
B|-----------------------------------|-----------------------------------|
G|-----------------------------------|-----------------------------------|
D|-----------------------------------|-----------------------------------|
A|-----------------------------------|-----------------------------------|
E|-----------------------------------|-----------------------------------|
 |				     |					 |
 |				     |					 |
e|-----------------------------------|-----------------------------------|
B|-----------------------------------|-----------------------------------|
G|-----------------------------------|-----------------------------------|
D|--5--------------------------------|--2--------------------------------|
A|--5--------------------------------|--2--------------------------------|
E|--3--------------------------------|--0--------------------------------|


                                      And Man is my name...
e|-----------------------------------|-----------------------------------|
B|-----------------------------------|-----------------------------------|
G|-----------------------------------|-----------------------------------|
D|-----------------------------------|-----------------------------------|
A|-----------------------------------|-----------------------------------|
E|-----------------------------------|-----------------------------------|
 |				     |					 |
 |				     |					 |
e|-----------------------------------|-----------------------------------|
B|-----------------------------------|-----------------------------------|
G|-----------------------------------|-----------------------------------|
D|-----------------------------------|-----------------------------------|
A|-----------------------------------|-----------------------------------|
E|-----------------------------------|-----------------------------------|

SOLO:
e|-----------------------------------|-----------------------------------|
B|-----------------------------------|-----------------------------------|
G|-----------------------------------|-----------------------------------|
D|-----------------------------------|-----------------------------------|
A|-----------------------------------|-----------------------------------|
E|-----------------------------------|-----------------------------------|
 |				     |					 |
 |				     |					 |
e|-----------------------------------|-----------------------------------|
B|-----------------------------------|-----------------------------------|
G|-----------------------------------|-----------------------------------|
D|-----------------------------------|-----------------------------------|
A|-----------------------------------|-----------------------------------|
E|-----------------------------------|-----------------------------------|



e|-----------------------------------|-----------------------------------|
B|-----------------------------------|-----------------------------------|
G|-----------------------------------|-----------------------------------|
D|-----------------------------------|-----------------------------------|
A|-----------------------------------|-----------------------------------|
E|-----------------------------------|-----------------------------------|
 |				     |					 |
 |				     |					 |
e|-----------------------------------|-----------------------------------|
B|-----------------------------------|-----------------------------------|
G|-----------------------------------|-----------------------------------|
D|-----------------------------------|-----------------------------------|
A|-----------------------------------|-----------------------------------|
E|-----------------------------------|-----------------------------------|
Tap to rate this tab
 
# A B C D E F G H I J K L M N O P Q R S T U V W X Y Z