Song name
# A B C D E F G H I J K L M N O P Q R S T U V W X Y Z

Michael Schenker - The Dogs Of War tab

-------------------------------------------------------------------------------
		     DOGS OF WAR - Michael Schenker Group
-------------------------------------------------------------------------------
MSG
Dogs Of War
From: Built To Destroy (1983)

Tabbed by:malpka

Tuning: Standard

INTRO:
free time, pick scrapes, harmonics, scratch slides

then:

e|-/14b16--------14b16~~~-|-14b16rp12----12--------|
B|------------------------|-----------15----15b17~-|
G|------------------------|------------------------|
D|------------------------|------------------------|
A|------------------------|------------------------|
E|------------------------|------------------------|
 |                        |                        |
e|------------------------|------------------------|
B|--9---------------------|-(9)-----------------9--|
G|--9---------------------|-(9)-----------------9--|
D|--9---------------------|-(9)-----------------9--|
A|--7---------------------|-(7)-----------------7--|
E|--0---------------------|-(0)--------------------|

e|------12-------------12-|--14b16--12-------------|
B|-~~~----15-12------12---|-------------15~~~--12~-|
G|--------------14b16-----|------------------------|
D|------------------------|------------------------|
A|------------------------|------------------------|
E|------------------------|------------------------|
 |                        |                        |
e|--7---------------------|-(7)-----------------7--|
B|--8---------------------|-(8)-----------------8--|
G|--7---------------------|-(7)-----------------7--|
D|--9---------------------|-(9)-----------------9--|
A|--7---------------------|-(7)-----------------7--|
E|------------------------|------------------------|


e|------------------------|------------------------|
B|------------------------|------------------------|
G|--14b16-12~-------------|------------------------|
D|-------------14-12------|---------7h9--9b11--9~--|
A|------------------12\10-|--7~~-------------------|
E|------------------------|------------------------|
 |                        |                        |
e|------------------------|------------------------|
B|--9---------------------|-(9)-----------------9--|
G|--9---------------------|-(9)-----------------9--|
D|--9---------------------|-(9)-----------------9--|
A|--7---------------------|-(7)-----------------7--|
E|--0---------------------|-(0)--------------------|

e|------------------------|------------------------|
B|------------------------|------------------------|
G|------------------------|------------------------|
D|-7~~~~---------9b11r~~--|------------------------|
A|------------------------|------------------------|
E|------------------------|------------------------|
 |                        |                        |
e|--7---------------------|-(7)-----------------7--|
B|--8---------------------|-(8)-----------------8--|
G|--7---------------------|-(7)-----------------7--|
D|--9---------------------|-(9)-----------------9--|
A|--7---------------------|-(7)-----------------7--|
E|------------------------|------------------------|


e|-14b16~~~---14brp12-----|-12-----12--------------|
B|--------------------15--|---15b17--15-12---------|
G|------------------------|---------------16p14-12-|
D|------------------------|------------------------|
A|------------------------|------------------------|
E|------------------------|------------------------|
 |                        |                        |
e|------------------------|--7---------------------|
B|--9-------------------9-|--8---------------------|
G|--9-------------------9-|--7---------------------|
D|--9-------------------9-|--9---------------------|
A|--7-------------------7-|--7---------------------|
E|--0-------------------0-|--0---------------------|

e|------------------------|------------------------|
B|------------------------|---------------------12-|
G|-14b~r-12--14~12--------|-------------14b16~-----|
D|---------14-----14-12---|------------------------|
A|---------------------14~|~~----------------------|
E|------------------------|------------------------|
 |                        |              [n.h.]    |
e|------------------------|------------------------|
B|------------------------|-----9--9------+7 \-----|
G|------------------------|-----9--9------+7 \-----|
D|------------------------|-----9--9--x---+7 \-----|
A|--3~~-------2-----0-----|-----------x------------|
E|------------------------|--0---------------------|


e|------------------------|------------------------|
B|--16~~~------16------16-|------------------------|
G|-------14b16----14b16---|-14brp12---14-12--------|
D|------------------------|--------14-------14~~\--|
A|------------------------|------------------------|
E|------------------------|------------------------|
 |                        |                        |
e|------------------------|--7---------------------|
B|--9-------------------9-|--8---------------------|
G|--9-------------------9-|--7---------------------|
D|--9-------------------9-|--9---------------------|
A|--7-------------------7-|--7---------------------|
E|--0-------------------0-|--0---------------------|

e|------------------------|------------------------|
B|------------------------|------------------------|
G|------------------------|------------------------|
D|------------------------|------------------------|
A|------------------------|------------------------|
E|------------------------|------------------------|
 |                        |                        |
e|------------------------|------------------------|
B|------------------------|-----9--9-9------7-7--9-|
G|--5~----------4~----2---|-----9--9-9------7-7--9-|
D|--5~----------4~----2---|-----9--9-9-x----7-7--9-|
A|--3~----------2~----0---|------------x-----------|
E|------------------------|--0------------0--------|


VERSE:
[FIG: 1]
 There's nothing worth taking, All was forsaken
e|------------------------|------------------------|
B|--------9----------9--9-|--------9--------9\-----|
G|--------9----------9--9-|--------9--------9\-----|
D|--------9----------9--9-|--------9--------9\-----|
A|------------------------|------------------------|
E|--0--0-------0--0-------|--0--0--------0---------|

e|------------------------|------------------------|
B|------------------------|-----9--9---------7--9--|
G|--5-----------------2---|-----9--9---------7--9--|
D|--5-----------------2---|-----9--9---------7--9--|
A|--3-----------2~~---0---|------------------------|
E|------------------------|--0--------0--0-0-------|

  Hit on the blind side   Caught in the spotlights
e|------------------------|------------------------|
B|--------9----------9--9-|--------9--------9\-----|
G|--------9----------9--9-|--------9--------9\-----|
D|--------9----------9--9-|--------9--------9\-----|
A|------------------------|------------------------|
E|--0--0-------0--0-------|--0--0--------0---------|

e|------------------------|------------------------|
B|------------------------|-----9--9--9------7--9--|
G|--5---------------------|-----9--9--9------7--9--|
D|--5---------/5~~~--4~~~-|-----9--9--9------7--9--|
A|--3---------------------|------------------------|
E|------------------------|--0-----------0-0-------|


VERSE:
[FIG: 1]
Warning delayed,
No chance of eluding...Time had run out
All that was left
Was the smoke from the ruins


VERSE:
[FIG: 2]

  Shadows were long as we  Forge through the night
e|------------------------|------------------------|
B|------------------------|------------------------|
G|---------4----------4---|---------4----------4---|
D|---------4----------4---|---------4----------4---|
A|---2--2--2----2--2--2---|---2--2--2----2--2--2---|
E|------------------------|------------------------|

  Looking for signs of the  Day
e|------------------------|------------------------|
B|------------------------|------------------------|
G|---------4----------4---|---------4--------------|
D|---------4----------4---|---------4--------------|
A|-0-1--2--2----2--2--2---|---2--2--2----2--1--3---|
E|------------------------|------------------------|

  Deep in their minds as they walked out of sight
e|------------------------|------------------------|
B|------------------------|------------------------|
G|---------4----------4---|---------4----------4---|
D|---------4----------4---|---------4----------4---|
A|---2--2--2----2--2--2---|---2--2--2----2--2--2---|
E|------------------------|------------------------|

  Leading the hours away
e|------------------------|------------------------|
B|------------------------|------------------------|
G|------------4-----------|---4--------------------|
D|------------4-----------|---4--------------------|
A|-0-1--2--2--2-----------|---2--1--2--3--4--5--6--|
E|------------------------|------------------------|


VERSE:
[FIG: 1]
Mission completed
All were defeated

Branded with fire
Now filled with desire

VERSE:
[FIG: 2]
Message came through
On the wings of a prayer
Feelings were high for a time

Slap on the backs
For the ones who had dared
To run with the wolves of our time


CHORUS:
[FIG: 3]

  The heat is on         When victory's won
e|------------------------|------------------------|
B|------------------------|------------------------|
G|--9----------7----------|--9----------7----------|
D|--9----------7----------|--9----------7----------|
A|--7----------5----------|--7----------5----------|
E|------------------------|------------------------|

  And your out, out in the cold    [n.h.]
e|------------------------|------------------------|
B|------------------------|--9------+12 \----------|
G|--5---------4-----------|--9------+12 \----------|
D|--5---------4-----------|-----9---+12 \----------|
A|--3---------2-----------|-----7------------------|
E|----------------3--2--0-|------------------------|

   The dogs of war      Will bite the hand for
e|------------------------|------------------------|
B|------------------------|------------------------|
G|--9----------7----------|--9----------7----------|
D|--9----------7----------|--9----------7----------|
A|--7----------5----------|--7----------5----------|
E|------------------------|------------------------|

 A price, And then hear them roar
e|------------------------|------------------------|
B|------------------------|--9---------------------|
G|--5---------4-----------|--9---------------------|
D|--5---------4-----------|--9---------------------|
A|--3---------2-----------|--7---------------------|
E|----------------3--2--0-|--0---------------------|


SOLO:
[FIG: 3]



VERSE:
[FIG: 1]
Their mission completed
The innocents bleeding

Hit on the blind side
Caught in the spotlights

Warning came late
No chance for eluding...Time had run out

All they had left was
The smoke and the ruins

VERSE:
[FIG: 2]
Shadows were long as they
Forged through the night
Looking for signs of the day

Slaps on the backs for
The ones who had dared
To buy someone's freedom...Who pays?

CHORUS:
[FIG: 3]



| /  slide up
| \  slide down
| h  hammer-on
| p  pull-off
| ~  vibrato
| +  harmonic
| x  Mute note
===============================================================================
Tap to rate this tab
# A B C D E F G H I J K L M N O P Q R S T U V W X Y Z