Song name
# A B C D E F G H I J K L M N O P Q R S T U V W X Y Z

Michael Schenker - Feels Like A Good Thing tab

Only after I tabbed this did I see someone had already done it.
I,m pretty sure after watching a few live youtube videos that it starts out in the 2nd 
 And I think there are a few notes here and there that I'm hearing diffrent though I 
be wrong. But all in all it,s close notewise to what's been tabbed already.
E|-------2-----2--2-----2-----2--2-------2-------------|
B|--5b7-----5--------2-----5--------5b7-----4b5--------|
G|-----------------------------------------------2-----|
D|--------------------------------------------------4--|
A|-----------------------------------------------------|
E|-----------------------------------------------------|

E|------------------------------------------------|
B|--1--2--1h2p1-----------------------------------|
G|---------------2/4-----4--2---------------------|
D|--------------------4-----------2---------------|
A|-----------------------------4-----2b4r2--------|
E|------------------------------------------------|

E|----------------------------------------------------|
B|----------------------------------------------------|
G|----------------------------------------------------|
D|----------------------------------------------------|
A|--0--2--2b4r2--0--2--2b4r2--0--2--2b4r2--0--2--5b7--|
E|----------------------------------------------------|

E|---------14--------------------------------------|
B|--17b19------17--14------14----------16----------|
G|---------------------16------15----------14------|
D|---------------------------------16----------16--|
A|-------------------------------------------------|
E|-------------------------------------------------|

E|----------------------------------------------------|
B|----------------------------------------------------|
G|------14------16--14------14--16/18--18--18--18b21--|
D|--16------16----------16----------------------------|
A|----------------------------------------------------|
E|----------------------------------------------------|


E|----------------------------------------------------|
B|-10b12r10-------------------------------------------|
G|----------11-9--------------------------------------|
D|---------------9-8-9-8-9-8-9-11-8-9-8-9-8---9-8-----|
A|------------------------------------------9-----9-9-|
E|----------------------------------------------------|

E|-----22b24-21-19-21--------------18-19-20-21----------------|
B|-------------------21b23-19-21-19-----------21h23p21-19--19-|
G|-------------------------------------------------------20---|
D|------------------------------------------------------------|
A|------------------------------------------------------------|
E|------------------------------------------------------------|

E|---------------------------------------|
B|--21-19-21b22-21-19--19----------------|
G|-------------------20--20-18-20--------|
D|-------------------------------19------|
A|---------------------------------21-21-|
E|---------------------------------------|

E|----------------------------16-17-18-17-18-17-18-17-18-------|
B|----------------------16-19----------------------------19-19-|
G|----------------18-19----------------------------------------|
D|-------18-19-20----------------------------------------------|
A|-19-21-------------------------------------------------------|
E|-------------------------------------------------------------|

|-----------------------------------------------------------------------|
B|-19-19-17-14-17-17----14----------------------------------------------|
G|-------------------16----14-15----16-14-------------------------------|
D|-------------------------------16----------16-14-13-14-13h14----------|
A|----------------------------------------14-------------------16-14----|
E|----------------------------------------------------------------------|

E|-------------|-------------------------|---|
B|-------------|-------------------------|---|
G|-14-14-14b16-|----14-15-------14-15----|---|
D|-------------|-16-------16-16-------16-|---|
A|-------------|-------------------------|---|
E|-------------|-------------------------|---|

E|-------------------------------------------------|
B|-------------------------------------------------|
G|-------------------------------------------------|
D|-13-14----13-14----13----------------------------|
A|-------16-------16----16-15-14----14-12-14-12----|
E|-------------------------------14-------------14-|
Tap to rate this tab
# A B C D E F G H I J K L M N O P Q R S T U V W X Y Z