Song name
# A B C D E F G H I J K L M N O P Q R S T U V W X Y Z

Michael Schenker - Weathervane tab

-------------------------------------------------------------------------------
			     WEATHERVANE - Michael Schenker Group
-------------------------------------------------------------------------------
Tabbed by:malpka
Email:sfaurot@hotmail.com

MSG
2000
Arachnophobiac
Weathervane


Tuning: Standard

[fig 1]
e|---------------------------------|---------------------------------|
B|---------------------------------|---------------------------------|
G|------2------0h2~--0-2-----------|------2------0h2~--0-2-----------|
D|----2---2--------------2---------|----2---2--------------2---------|
A|--0--------0-------------3b-0----|--0--------0-------------3b-0----|
E|---------------------------------|---------------------------------|


e|---------------------------------|----------------------------------|
B|---------------------------------|----------------------------------|
G|------2------0h2~--0-2-----------|------2------2----5-----7---------|
D|----2---2--------------2---------|----2---2---------5-----7---------|
A|--0--------0-------------3b-0----|--0--------0------3-----7---------|
E|---------------------------------|-----------------(3)---(5)--------|



    oooh, little tricky mama...yeah you got alot to say
e|-----------------------------------|-----------------------------------|
B|-----------------------------------|-----------------------------------|
G|--9---9--9-----------------7-------|--9---9--9-----------------7-------|
D|--9---9--9------9-----9------9-----|--9---9--9------9-----9------9-----|
A|--7---7--7------7---7---7------7~--|--7---7--7------7---7---7------7~--|
E|------------7b---------------------|------------7b---------------------|

   and the way you do that dance...oh, gonna take my blues away
e|-----------------------------------|-----------------------------------|
B|-----------------------------------|-----------------------------------|
G|--9---9--9-----------------7-------|--9---9--9-----------------7-------|
D|--9---9--9------9-----9------9-----|--9---9--9------9-----9------9-----|
A|--7---7--7------7---7---7------7~--|--7---7--7------7---7---7------7~--|
E|------------7b---------------------|------------7b---------------------|


   ooh babe, what you lookin for...
e|-----------------|------------------|
B|-----------------|------------------|
G|---7----------7--|--5----------5-4--|
D|---7----------7--|--5----------5-4--|
A|---5----------5--|--3----------3-2--|
E|--(5)--------(5)-|-(3)--------------|

           +                                   +
e|-----------------------------------|-----------------------------------|
B|-----------------------------------|-----------------------------------|
G|-----------------------------------|-----------------------------------|
D|---------2~----2---2---------------|---------2~----2---2---------------|
A|-------------5---5---5--2----------|-------------5---5---5--2----------|
E|--0--x-x-------------------3b~-----|--0--x-x-------------------3b------|

    you got a nasty reputation now...seems you been down before
e|-----------------|------------------|
B|-----------------|------------------|
G|---7----------7--|--5----------5-4--|
D|---7----------7--|--5----------5-4--|
A|---5----------5--|--3----------3-2--|
E|--(5)--------(5)-|-(3)--------------|

           +                                   +
e|-----------------------------------|-----------------------------------|
B|-----------------------------------|-----------------------------------|
G|-----------------------------------|-----------------------------------|
D|---------2~----2---2---------------|---------2~----2---2---------------|
A|-------------5---5---5--2----------|-------------5---5---5--2----------|
E|--0--x-x-------------------3b~-----|--0--x-x-------------------3b------|



	if you want a love that's gonna last more than a day...
e|-----------------------------|-----------------------------|
B|-----------------------------|-----------------------------|
G|--4--4-4----4--------2-------|--4--4-4----4--------2-------|
D|--4--4-4----4----4-----4-----|--4--4-4----4----4-----4-----|
A|--2--2-2----2--2---2-----2~--|--2--2-2----2--2---2-----2~--|
E|---------5b------------------|---------5b------------------|



    better get up outta your dancin shoes and change your shifty ways...
e|-----------------------------|-----------------------------|
B|-----------------------------|----------------9-9--9-9-----|
G|--5--5-5----5--------3-------|--7--7-7----7---9-9--9-9-----|
D|--5--5-5----5----5-----5-----|--7--7-7----7---9-9--9-9-----|
A|--3--3-3----3--3---3-----3~--|--5--5-5----5---7-7--7-7-----|
E|---------6b------------------|---------7b------------------|

[fig 1]
CHORUS:
   Like a weathervane turnin when the wind is right...you're gonna keep on spinnin til ya see the light
e|---------------------------------|---------------------------------|
B|---------------------------------|---------------------------------|
G|------2------0h2~--0-2-----------|------2------0h2~--0-2-----------|
D|----2---2--------------2---------|----2---2--------------2---------|
A|--0--------0-------------3b-0----|--0--------0-------------3b-0----|
E|---------------------------------|---------------------------------|


   I see you comin back for more tonight... it's any way the wind blows
e|---------------------------------|----------------------------------|
B|---------------------------------|----------------------------------|
G|------2------0h2~--0-2-----------|------2------2----5-----7---------|
D|----2---2--------------2---------|----2---2---------5-----7---------|
A|--0--------0-------------3b-0----|--0--------0------3-----7---------|
E|---------------------------------|-----------------(3)---(5)--------|


| /  slide up
| \  slide down
| h  hammer-on
| p  pull-off
| ~  vibrato
| +  harmonic
| x  Mute note
===============================================================================
Tap to rate this tab
 
# A B C D E F G H I J K L M N O P Q R S T U V W X Y Z