Song name
# A B C D E F G H I J K L M N O P Q R S T U V W X Y Z

Michael Schenker - Ready To Rock tab

e|-----------------------------|-----------------------------|
B|-----------------------------|-----------------------------|
G|-----2----------2~-----------|---------------------7-------|
D|-----2----------2~-----------|--5~------------5----7-------|
A|--x--0---x--0---0------0--0--|--5~---0--0-----5----5-------|
E|-----------------------------|-------------3---------------|


e|-----------------------------|-----------------------------|
B|-----------------------------|---------------------3-------|
G|-----2----------2~-----------|----------------0----2-------|
D|-----2----------2~-----------|--5~------------0----0-------|
A|--x--0---x--0---0------0--0--|--5~---0--0-----x------------|
E|-----------------------------|----------------3------------|




e|-----------------------------|-----------------------------|
B|-----------------------------|-----------------------------|
G|-----2----------2~-----------|---------------------7-------|
D|-----2----------2~-----------|--5~------------5----7-------|
A|--x--0---x--0---0------0--0--|--5~---0--0-----5----5-------|
E|-----------------------------|-------------3---------------|

                                               you know that
e|-----------------------------|-----------------------------|
B|-----------------------------|---------------------3-------|
G|-----2----------2~-----------|----------------0----2-------|
D|-----2----------2~-----------|--5~------------0----0-------|
A|--x--0---x--0---0------0--0--|--5~---0--0-----x------------|
E|-----------------------------|----------------3------------|


    sound...           you got that feeling
e|-----------------------------|-----------------------------|
B|-----------------------------|-----------------------------|
G|-----2----------2~-----------|---------------------7-------|
D|-----2----------2~-----------|--5~------------5----7-------|
A|--x--0---x--0---0------0--0--|--5~---0--0-----5----5-------|
E|-----------------------------|-------------3---------------|

   you know there's no going back.....
e|-----------------------------|-----------------------------|
B|-----------------------------|---------------------3-------|
G|-----2----------2~-----------|----------------0----2-------|
D|-----2----------2~-----------|--5~------------0----0-------|
A|--x--0---x--0---0------0--0--|--5~---0--0-----x------------|
E|-----------------------------|----------------3------------|




 ...out in the streets                 the kids stand and wait their time...
e|---------------------|------------------|-------------------|-----------|
B|---------------------|------------------|-------------------|-----------|
G|--5\---------------5-|--5\--------------|--5\-----------7~--|-(7~)------|
D|--7\-----5---------7-|--7\------5-------|--7\-----5-----7~--|-(7~)------|
A|---------5-----------|----------5-------|---------5-----5~--|-(5~)------|
E|---------3-----------|-------x--3-------|---------3---------|-----------|


   tell me how do you feel                  do you wanna rock  tonight...
e|---------------------|------------------|-------------------|-----------|
B|---------------------|------------------|-------------------|-----------|
G|--5\---------------5-|--5\--------------|--5\-----------7~--|-(7~)------|
D|--7\-----5---------7-|--7\------5-------|--7\-----5-----7~--|-(7~)------|
A|---------5-----------|----------5-------|---------5-----5~--|-(5~)------|
E|---------3-----------|-------x--3-------|---------3---------|-----------|





                              Are you ready
e|--------------------------|-----------------------------|
B|------------12------------|-----------------------------|
G|--9---------12--------7~--|-(7~)--7--7-----7--7---9-----|
D|--9---------12--------7~--|-(7~)--7--7-----7--7---9-----|
A|--7-------------------5~--|-(5~)--5--7-----5--5---7-----|
E|--0---0--0------0--0------|----------0--0------------0--|


                              Are you ready to rock?
e|--------------------------|-----------------------------|
B|------------12------------|-----------------------------|
G|--9---------12--------7~--|-(7~)--7--7-----7--7---9-----|
D|--9---------12--------7~--|-(7~)--7--7-----7--7---9-----|
A|--7-------------------5~--|-(5~)--5--7-----5--5---7-----|
E|--0---0--0------0--0------|----------0--0------------0--|



| /  slide up
| \  slide down
| h  hammer-on
| p  pull-off
| ~  vibrato
| +  harmonic
| x  Mute note
===============================================================================
Tap to rate this tab
# A B C D E F G H I J K L M N O P Q R S T U V W X Y Z