Song name
# A B C D E F G H I J K L M N O P Q R S T U V W X Y Z

Michael Schenker - Arachnophobiac tab

Help us improve GuitareTab! Take a short survey!
-------------------------------------------------------------------------------
			   ARACHNOPHOBIAC  - Michael Schenker Group
-------------------------------------------------------------------------------
MSG
Arachnophobiac
From: Arachnophobiac (2003)

Tabbed by:malpka
Email:sfaurot@hotmail.com

Tuning: Standard

[FIG: 1]
e|--------------------------------|--------------------------------|
B|--------------------------------|--------------------------------|
G|--------------------------------|--------------------------------|
D|--0----------------3~~----------|--0----------------3~~----------|
A|----4-3-2-1.---0-3--------------|----4-3-2-1.---0-3-----------0--|
E|------------------------1~--3~--|-----------------------1--3-----|


e|--------------------------------|--------------------------------|
B|--------------------------------|--------------------------------|
G|--------------------------------|---------2~------/3--2----------|
D|--0----------------3~~----------|------2------------------(3)----|
A|----4-3-2-1.---0-3--------------|---0----------------------------|
E|------------------------1~--3~--|--------------------------------|


VERSE 1:
[FIG: 2]
   One lonely spider    Creepy crawlin up my wall
e|----------------------|----------------------|
B|----------------------|----------------------|
G|--7-7--x--x-5-5--x--x-|-7-7--x--x-9/10--9----|
D|--7-7--x--x-5-5--x--x-|-7-7--x--x------------|
A|--5-5--x--x-3-3--x--x-|-5-5--x--x-7/8---7----|
E|----------------------|----------------------|

  Two more inside of my shoe
e|----------------------|----------------------|-----------|
B|----------------------|----------------------|-----------|
G|--7-7--x--x-5-5--x--x-|-3~-------------------|--3--5-----|
D|--7-7--x--x-5-5--x--x-|-3~-------------------|--3--5-----|
A|--5-5--x--x-3-3--x--x-|-1~-------------------|--1--3-----|
E|----------------------|----------------------|-----------|

  I found his friends in my bed In the night they're crawlin on my head
e|----------------------|----------------------|
B|----------------------|----------------------|
G|--7-7--x--x-5-5--x--x-|-7-7--x--x-9/10--9----|
D|--7-7--x--x-5-5--x--x-|-7-7--x--x------------|
A|--5-5--x--x-3-3--x--x-|-5-5--x--x-7/8---7----|
E|----------------------|----------------------|

  What am I supposed to do?
e|----------------------|----------------------|
B|----------------------|----------------------|
G|--3~------------------|--5~------------------|
D|--3~------------------|--5~------------------|
A|--1~------------------|--3~------------------|
E|--1~------------------|--3~------------------|


PRE-CHORUS 1:
[FIG: 3]
                           This is an infestation
e|------------------------|------------------------|
B|------------------------|------------------------|
G|-10--10-x--x--9-9--x--x-|-10-10-x--x-12-12--x--x-|
D|--------x--x-------x--x-|-------x--x--------x--x-|
A|--8--8--x--x--7-7--x--x-|--8-8--x--x-10-10--x--x-|
E|------------------------|------------------------|
 |                        |                        |
e|------------------------|------------------------|
B|------------------------|------------------------|
G|-10--10-x--x--5-5--x--x-|--7-7--x--x-8--8--x--x--|
D|-10--10-x--x--5-5--x--x-|--7-7--x--x-8--8--x--x--|
A|--8--8--x--x--3-3--x--x-|--5-5--x--x-6--6--x--x--|
E|------------------------|------------------------|

                         Changin' the sheets won't do
e|------------------------|------------------------|
B|------------------------|------------------------|
G|-10--10-x--x--9-9--x--x-|-10-10-x--x--x-12~x-12~-|
D|--------x--x-------x--x-|-------x--x-------------|
A|--8--8--x--x--7-7--x--x-|--8-8--x--x--x-10~x-10~-|
E|------------------------|------------------------|
 |                        |                        |
e|------------------------|------------------------|
B|------------------------|------------------------|
G|-10--10-x--x--5-5--x--x-|--7-7--x--x--x-8~-x-8~--|
D|-10--10-x--x--5-5--x--x-|--7-7--x--x--x-8~-x-8~--|
A|--8--8--x--x--3-3--x--x-|--5-5--x--x--x-6~-x-6~--|
E|------------------------|------------------------|

                         It needs a fumigation
e|------------------------|------------------------|
B|------------------------|------------------------|
G|-10--10-x--x--9-9--x--x-|-10-10-x--x-12-12--x--x-|
D|--------x--x-------x--x-|-------x--x--------x--x-|
A|--8--8--x--x--7-7--x--x-|--8-8--x--x-10-10--x--x-|
E|------------------------|------------------------|
 |                        |                        |
e|------------------------|------------------------|
B|------------------------|------------------------|
G|-10--10-x--x--5-5--x--x-|--7-7--x--x-8--8--x--x--|
D|-10--10-x--x--5-5--x--x-|--7-7--x--x-8--8--x--x--|
A|--8--8--x--x--3-3--x--x-|--5-5--x--x-6--6--x--x--|
E|------------------------|------------------------|

                      And I don't wanna be there when they come out
e|------------------------|------------------------|
B|------------------------|------------------------|
G|-10--10-x--x--9-9--x--x-|-10-10-x--x--x-12~x-12~-|
D|--------x--x-------x--x-|-------x--x-------------|
A|--8--8--x--x--7-7--x--x-|--8-8--x--x--x-10~x-10~-|
E|------------------------|------------------------|
 |                        |                        |
e|------------------------|------------------------|
B|------------------------|------------------------|
G|-10--10-x--x--5-5--x--x-|--7-7--x--x--x-8~-x-8~--|
D|-10--10-x--x--5-5--x--x-|--7-7--x--x--x-8~-x-8~--|
A|--8--8--x--x--3-3--x--x-|--5-5--x--x--x-6~-x-6~--|
E|------------------------|------------------------|



e|----------------------|----------------------|
B|----------------------|----------------------|
G|--7-7--x--x-5-5--x--x-|-7-7--x--x-9/10--9----|
D|--7-7--x--x-5-5--x--x-|-7-7--x--x------------|
A|--5-5--x--x-3-3--x--x-|-5-5--x--x-7/8---7----|
E|----------------------|----------------------|

e|----------------------|----------------------|-----------|
B|----------------------|----------------------|-----------|
G|--7-7--x--x-5-5--x--x-|-3~-------------------|--3--5-----|
D|--7-7--x--x-5-5--x--x-|-3~-------------------|--3--5-----|
A|--5-5--x--x-3-3--x--x-|-1~-------------------|--1--3-----|
E|----------------------|----------------------|-----------|

VERSE 2:
[FIG: 2]
Too may spiders
Creepy crawlin' on my wall
Don't like to stay here alone

I see a big ol sticky web
In the shower they're right overhead
I just need to go back home

PRE-CHORUS 2:
[FIG: 3]
This is an infestation
Changin' the sheets won't do
It needs a fumigation
And I don't wanna be there when they come out!

CHORUS
[FIG: 1]
  I want my money back


  Arachnophobiac


SOLO:
(inexpicably, Jeff Watson from Night Ranger plays this and other solos on this album, WTF?!?
  Live it is played by Wayne Findlay)


SOLO RHYTHM:
[FIG: 4]
e|----------------------|----------------------|
B|----------------------|----------------------|
G|--7-7--x--x-5-5--x--x-|-7-7--x--x-9/10--9----|
D|--7-7--x--x-5-5--x--x-|-7-7--x--x------------|
A|--5-5--x--x-3-3--x--x-|-5-5--x--x-7/8---7----|
E|----------------------|----------------------|

e|----------------------|----------------------|
B|----------------------|----------------------|
G|-3~-------------------|-5~-------------------|
D|-3~-------------------|-5~-------------------|
A|-1~-------------------|-3~-------------------|
E|-1~-------------------|-3~-------------------|




| /  slide up
| \  slide down
| h  hammer-on
| p  pull-off
| ~  vibrato
| +  harmonic
| x  Mute note
===============================================================================
Related for Arachnophobiac tab