Song name
# A B C D E F G H I J K L M N O P Q R S T U V W X Y Z

Michael Schenker - Journey Man tab

-------------------------------------------------------------------------------
		     JOURNEY MAN - Michael Schenker Group
-------------------------------------------------------------------------------
MSG
Journey Man
from: Tales Of Rock 'n' Roll (2006)

Tabbed by:malpka

Tuning: Standard


[FIG: 1]x2
e|----------------------|----------------------|
B|----------------------|----------------------|
G|--7/9-------9\7-------|----------------------|
D|--7/9-------9\7-------|--5/7-------7\5-------|
A|--5/7--x-x--7\5--x-x--|--5/7--x-x--7\5--x-x--|
E|-------0-0-------0-0--|--3/5--0-0--5\3--0-0--|

e|----------------------|----------------------|
B|----------------------|----------------------|
G|--7/9-------9\7-------|----------------------|
D|--7/9-------9\7-------|--5/7-------7\5-------|
A|--5/7--x-x--7\5--x-x--|--5/7--x-x--7\5--x-x--|
E|-------0-0-------0-0--|--3/5--0-0--5\3--0-0--|

VERSE 1:
[FIG: 1]
I know that I shall
Meet my fate
Somewhere among
The clouds above

For those I fight,
I don't hate
For those I guard,
I won't break


CHORUS:
[FIG: 2]
         I'm a journey man    I'm a lovin' man
e|------------------------------|------------------------------|
B|----------------3-------------|----------------3-------------|
G|---------2---2--2------2------|---------2---2--2------2------|
D|--2------2---2--0------2------|--2------2---2--0------2------|
A|--2------0---0---------0------|--2------0---0---------0------|
E|--0--3b4-----------3b4----3b4-|--0--3b4-----------3b4---3b4/-|


VERSE 2:
[FIG: 1]

Before the preacher
I want love
Taste your lips
And move your heart

It's clear that my luck
Is broken
Still I got this
Hammer for you, babe


         I'm a journey man    I'm a lovin' man I'm a journey man
e|------------------------------|------------------------------|
B|----------------3-------------|----------------3-------------|
G|---------2---2--2------2------|---------2---2--2------2------|
D|--2------2---2--0------2------|--2------2---2--0------2------|
A|--2------0---0---------0------|--2------0---0---------0------|
E|--0--3b4-----------3b4----3b4-|--0--3b4-----------3b4----(3b-|


  Maybe good ol' Jack
e|------------------------|--------------------|
B|------------------------|---------/8-6~------|
G|------------------------|---------/8-6~------|
D|------------------------|---------/8-6~------|
A|------4~~------5~~------|--------------------|
E|-b4)------3b4-------(3b-|-b4)-0----------(3b-|

  Could give my fire back
e|------------------------|--------------------|
B|------------------------|---------/8-6~------|
G|------------------------|---------/8-6~------|
D|------------------------|---------/8-6~------|
A|------4~~------5~~------|--------------------|
E|-b4)------3b4-------(3b-|-b4)-0----------(3b-|

  Yeah....
e|------------------------|--------------------|
B|------------------------|---------/8-6~------|
G|------------------------|---------/8-6~------|
D|------------------------|---------/8-6~------|
A|------4~~------5~~------|--------------------|
E|-b4)------3b4-------(3b-|-b4)-0----------(3b-|

  Yeah....
e|--------------------|---------------------|
B|---------/8-6~~-----|---------/8--6~~-----|
G|---------/8-6~~-----|---------/8--6~~-----|
D|---------/8-6~~-----|---------/8--6~~-----|
A|--------------------|---------------------|
E|-b4)-0----------(3b-|-b4)-0-----------3b--|

SOLO:
e|--------------------|--------------------|
B|--------------------|--------------------|
G|--------------------|--------------------|
D|----2---------------|-----2--------------|
A|-------5--0--2------|--------5--0--2-----|
E|-0--------------2~--|--0--------------3--|
 |                    |                    |
e|--------------------|--------------------|
B|--------------------|--------------------|
G|--9-9---------------|--9---9-------------|
D|--9-9---------------|--9---9-------------|
A|--7-7---------------|--7---7-------------|
E|--------------------|--------------------|


| /  slide up
| \  slide down
| h  hammer-on
| p  pull-off
| ~  vibrato
| +  harmonic
| x  Mute note
===============================================================================
Tap to rate this tab
# A B C D E F G H I J K L M N O P Q R S T U V W X Y Z