Song name
# A B C D E F G H I J K L M N O P Q R S T U V W X Y Z

Michael Schenker - Still Love That Little Devil tab

-------------------------------------------------------------------------------
	   STILL LOVE THAT LITTLE DEVIL - Michael Schenker Group
-------------------------------------------------------------------------------
MSG
Still Love That Little Devil
From: Built To Destroy (1983)

Tabbed by:malpka

Tuning: Standard


[FIG: 1]
e|---7--7----------9--9---|---------ad lib---------|
B|---8--8----------9--9---|----------with----------|
G|---7--7----------9--9---|-------harmonics--------|
D|------------------------|------pick scrapes------|
A|------------------------|---and Teutonic Scale---|
E|---------0-0-0-0--------|------------------------|

VERSE:
[FIG: 2]
  Any trip I make        No matter what it takes
e|------------------------|------------------------|
B|--4---------------------|------------------------|
G|--4---------------------|-----------------4------|
D|--4---------------------|-----------------4------|
A|--2---------------------|--x--x--x-----2--2------|
E|------------------------|------------------------|

  To work or holiday
e|------------------------|----------7-7-7-7-7-7\--|
B|--4---------------------|----------7-7-7-7-7-7\--|
G|--4---------------------|------------------------|
D|--4---------------------|--x/--------------------|
A|--2---------------------|--x/--------------------|
E|------------------------|------------------------|

  I want her here with me  I know she likes to be
e|------------------------|------------------------|
B|--4---------------------|------------------------|
G|--4---------------------|-----4--------4--4------|
D|--4---------------------|-----4--------4--4------|
A|--2---------------------|--x--2--------2--2------|
E|------------------------|----------0-------------|

  Together with me every day
e|------------------------|------------------------|
B|--4--4------------------|------------------------|
G|--4--4------------------|------------------------|
D|--4--4------------------|------------------------|
A|--2--2------------------|--2--3--2--0--2--0------|
E|------------------------|--------------------3\0-|


[FIG: 1]

VERSE:
[FIG: 2]
Anywhere I go
She's there at the show
Enjoy's herself until the end

But all the time she drinks
And never stops to think
It's gonna start all over again

[FIG: 1]


PRE-CHORUS:
[FIG: 2 variant]
I must be
Outta my head
How can she love me if
She's leaving my bed?

Can't seem to
Figure it out
I've given all I can
I can't work her out

CHORUS:
[FIG: 
  I love you               I hate you so much
e|------------------------|------------------------|
B|--------8~---------8~---|------------------------|
G|--------7~---------7~---|--------2---------------|
D|--------5~---------5~---|--------2---------------|
A|--x--x--5~---x--x--5~---|--x--x--0---------------|
E|------------------------|-------------5~~~5~~~~--|

  You spoil me             I can't get enough
e|------------------------|------------------------|
B|--------8~---------8~---|------------------------|
G|--------7~---------7~---|--------2------ad lib---|
D|--------5~---------5~---|--------2---------------|
A|--x--x--5~---x--x--5~---|--x--x--0---------------|
E|------------------------|------------------------|

  I need you               Don't wanna see you again
e|------------------------|------------------------|
B|--------8~---------8~---|------------------------|
G|--------7~---------7~---|--------2------ad lib---|
D|--------5~---------5~---|--------2---------------|
A|--x--x--5~---x--x--5~---|--x--x--0---------------|
E|------------------------|------------------------|

  That little devil        Is she playin' a game?
e|------------------------|------------------------|
B|----5-----5-----5-----5-|----7-----7-----7-----7-|
G|----5-----5-----5-----5-|----7-----7-----7-----7-|
D|-5--5--5--5--5--5--5--5-|-7--7--7--7--7--7--7--7-|
A|-3--3--3--3--3--3--3--3-|-5--5--5--5--5--5--5--5-|
E|------------------------|------------------------|


VERSE:
[FIG: 2]
Everything I make
She always seems to take
But gives me something back in return

I know I still love her
Does she really care
Or am I another victim to burn

PRE-CHORUS
[FIG: 2]

CHORUS
[FIG: 3]
e|--------12~-------12~---|------------------------|
B|--------12~-------12~---|--------------14b~------|
G|--------12~-------12~---|--------12----14b~------|
D|------------------------|--------12----14b~------|
A|--x--x-------x--x-------|--x--x------------------|
E|------------------------|------------------------|



| /  slide up
| \  slide down
| h  hammer-on
| p  pull-off
| ~  vibrato
| +  harmonic
| x  Mute note
===============================================================================
Tap to rate this tab
 
# A B C D E F G H I J K L M N O P Q R S T U V W X Y Z