Song name
# A B C D E F G H I J K L M N O P Q R S T U V W X Y Z

Michael Schenker - Dreams And Expressions 08 N tab

-------------------------------------------------------------------------------
		Dreams And Expressions 08 N - Michael Schenker
-------------------------------------------------------------------------------
MICHAEL SCHENKER
Track 08: N
From:Dreams And Expressions (2000)

Tabbed by:malpka

Tuning:Standard


e|--7--7----6--6----5--5----3--3--|--------------------------------|
B|--7--7----6--6----5--5----3--3--|--------------------------------|
G|--4--4----3--3----2--2----0--0--|--------------------------------|
D|--4--4----3--3----2--2----0--0--|--------------------------------|
A|--------------------------------|--------------------------------|
E|--------------------------------|--------------------------------|
 |                                |                       p.h.     |
e|--------------------------------|--------------------------------|
B|--------------------------------|--------------------------------|
G|--------------------------------|--------------------------------|
D|--------------------------------|----------2p0----2p0---+2~~~----|
A|--------------------------------|--------------------------------|
E|--7--7----6--6----5--5----3--3--|--0---0-------------------------|
 | 3rd Time:                      |                                |
e|--------------------------------|--------------------------------|
B|----------7---------------7-----|----------9---------------9~----|
G|--x-------7-------x-------7-----|--x-------9-------x-------9~----|
D|--x-------7-------x-------7-----|--x-------9-------x-------9~----|
A|--x---------------x-------------|--x---------------x-------------|
E|--------------------------------|--------------------------------|


e|--7--7----6--6----5--5----3--3--|--------------------------------|
B|--7--7----6--6----5--5----3--3--|--------------------------------|
G|--4--4----3--3----2--2----0--0--|--------------------------------|
D|--4--4----3--3----2--2----0--0--|--------------------------------|
A|--------------------------------|--------------------------------|
E|--------------------------------|--------------------------------|
 |                                |                    p.h.        |
e|--------------------------------|--------------------------------|
B|--------------------------------|--------------------------------|
G|--------------------------------|--------------------------------|
D|--------------------------------|-----------2p0------+2~~~-------|
A|--------------------------------|--------------------------------|
E|--7--7----6--6----5--5----3--3--|--0---0-------------------------|
 | 3rd Time:                      |                                |
e|--------------------------------|--------------------------------|
B|--7--7----6--6----5-------------|-----------9p7--------9~~~------|
G|--7--7----6--6----5-------------|--x---x----9p7--------9~~~------|
D|--7--7----6--6----5-------------|--x---x----9p7--------9~~~------|
A|--------------------------------|--x---x-------------------------|
E|--------------------------------|--------------------------------|


e|--7--7----6--6----5--5----3--3--|--------------------------------|
B|--7--7----6--6----5--5----3--3--|--------------------------------|
G|--4--4----3--3----2--2----0--0--|--------------------------------|
D|--4--4----3--3----2--2----0--0--|--------------------------------|
A|--------------------------------|--------------------------------|
E|--------------------------------|--------------------------------|
 |                                |                       p.h.     |
e|--------------------------------|--------------------------------|
B|--------------------------------|--------------------------------|
G|--------------------------------|--------------------------------|
D|--------------------------------|----------2p0----2p0---+2~~~----|
A|--------------------------------|--------------------------------|
E|--7--7----6--6----5--5----3--3--|--0---0-------------------------|
 | 3rd Time:                      |                                |
e|--------------------------------|--------------------------------|
B|----------7---------------7-----|---------9----------------9~~---|
G|--x-------7-------x-------7-----|--x------9------x---9p7---9~~---|
D|--x-------7-------x-------7-----|--x------9------x---9p7---9~~---|
A|--x---------------x-------------|--x-------------x---------------|
E|--------------------------------|--------------------------------|


e|--------------------------------|--------------------------------|
B|--------------------------------|--------------------------------|
G|--------------------------5~----|--------------------------7~----|
D|----------3~--------------5~----|----------5~--------------7~----|
A|----------3~------3--3----3~----|----------5~------5--5----5~----|
E|--1--1----1~--------------------|--3--3----3~--------------------|
 |                                |                                |
e|----------1~--------------3~----|----------3~--------------5~----|
B|----------1~--------------5~----|----------3~--------------7~----|
G|----------2~------5--5----5~----|----------4~--------------7~----|
D|--3--3----3~------5--5----5~----|--5--5----5~------7--7----7~----|
A|--3--3----3~------3--3----3~----|--5--5----5~------5--5----5~----|
E|--1--1----1~--------------------|--3--3----3~--------------------|



e|--0--------0--------0--------0--|--0--0-0-0--0-0-0--0-0-0--0-0---|
B|--0--------2-------/3--------2--|-/5--5-5-0--0-0/3--3-3-2--2-2---|
G|--------------------------------|--------------------------------|
D|--------------------------------|--------------------------------|
A|--------------------------------|--------------------------------|
E|--------------------------------|--------------------------------|
 |                                |                                |
e|--------------------------------|--------------------------------|
B|--------------------3-----------|--------------------------------|
G|-----------2--------2--------2--|--------------------------------|
D|--2--------2--------0--------2--|--------------------------------|
A|--2--------0-----------------0--|--2------2------2------2--------|
E|--0-----------------------------|--0--0-0-0--0-0-0--0-0-0--0-0---|


e|--0--------0--------0--------0--|--0--0-0-0--0-0-0--0-0-0--0-0---|
B|--0--------2-------/3--------2--|-/5--5-5-0--0-0/3--3-3-2--2-2---|
G|--------------------------------|--------------------------------|
D|--------------------------------|--------------------------------|
A|--------------------------------|--------------------------------|
E|--------------------------------|--------------------------------|
 |                                |                                |
e|--------------------------------|--------------------------------|
B|--------------------3-----------|--------------------------------|
G|-----------2--------2--------2--|--------------------------------|
D|--2--------2--------0--------2--|--------------------------------|
A|--2--------0-----------------0--|--2------2------2------2--------|
E|--0-----------------------------|--0--0-0-0--0-0-0--0-0-0--0-0---|



INTERLUDE:
 no clue, half of it doesn't even make sense
e|------------------------|------------------------|
B|------------------------|------------------------|
G|------------------------|------------------------|
D|------------------------|------------------------|
A|------------------------|------------------------|
E|------------------------|------------------------|


SOLO RYTHYM:
e|------------------------|------------------------|
B|------------------------|------------------------|
G|------------------------|------------------------|
D|-5/7--7~-7---5--7--7--7-|-5/7--7~-7---5--7--7--7-|
A|-3/5--5~-5---3--5--5--5-|-3/5--5~-5---3--5--5--5-|
E|------------------------|------------------------|


e|------------------------|------------------------|
B|------------------------|------------------------|
G|------------------------|------------------------|
D|------------------------|------------------------|
A|-2h3--3~-3---2--3--3--3-|-2h3--3~-3---2--3--3--3-|
E|-0h1--1~-1---0--1--1--1-|-0h1--1~-1---0--1--1--1-|


| /  slide up
| \  slide down
| h  hammer-on
| p  pull-off
| ~  vibrato
| +  harmonic
| x  Mute note
===============================================================================
Tap to rate this tab
 
# A B C D E F G H I J K L M N O P Q R S T U V W X Y Z