Song name
# A B C D E F G H I J K L M N O P Q R S T U V W X Y Z

Michael Schenker - Girl From Uptown tab

-------------------------------------------------------------------------------
		  GIRL FROM UPTOWN - Michael Schenker Group
-------------------------------------------------------------------------------
MSG
Girl From Uptown
From: "Dancer" b/w "Girl From Uptown" single (1982)
also avaiable on: Assault Attack (import) as a bonus song

Tabbed by:malpka

Tuning: Standard


INTRO: [FIG: 1]
e|------------------------|------------------------|
B|------------------------|-9----------------------|
G|----9------7------------|-9------7---------------|
D|----9------7------2-----|-9------7------2--2-----|
A|----7------5------2-----|-7------5------2--2-----|
E|-0------0------0--0---0-|----0------0---0--0---0-|

e|------------------------|------------------------|
B|------------------------|-9----------------------|
G|----9------7------------|-9---7------------------|
D|----9------7------2-----|-9---7-------2----------|
A|----7------5------2-----|-7---5-------2------7---|
E|-0------0------0--0---0-|----------0--0---/7---7-|


VERSE:
[FIG: 1]
I see the young girl from uptown
She's never lookin' for me
Walkin' the steets, goin' up and down
But she's not lookin' for me

I wonder just who she's foolin'
I know just what she's about
I wanna know what kinda things she's in
And why I'm bein' left out


BRIDGE:
[FIG: 2]
      Try         to survive        the   situation
e|------------------------|------------------------|
B|-------14---------------|-14-12------------7--5--|
G|-------14-----------12--|-14-12------------7--5--|
D|-------14-----------12--|-14-12------------7--5--|
A|--0-0-------0---0-------|---------0--0--0--------|
E|------------------------|------------------------|

e|------------------------|------------------------|
B|-------14---------------|-14--12-----------7--5--|
G|--2----14-----------12--|-14--12-----------7--5--|
D|--2----14-----------12--|-14--12-----------7--5--|
A|--0---------0---0-------|---------0--0--0--------|
E|------------------------|------------------------|

    Fire     a  spark       in  my    imagination
e|------------------------|------------------------|
B|-------14---------------|-14-12------------7--5--|
G|-------14-----------12--|-14-12------------7--5--|
D|-------14-----------12--|-14-12------------7--5--|
A|--0-0-------0---0-------|---------0--0--0--------|
E|------------------------|------------------------|

e|------------------------|------------------------|
B|-------14---------------|-14--12-----------7--5--|
G|--2----14-----------12--|-14--12-----------7--5--|
D|--2----14-----------12--|-14--12-----------7--5--|
A|--0---------0---0-------|---------0--0--0--------|
E|------------------------|------------------------|


VERSE:
[FIG: 1]
It made me happy to see her
Why don't she ever look back
Am I too old or is she too young
Could be that I should attack


BRIDGE
[FIG: 2]


VERSE:
[FIG: 1]
I wanna know just who she's foolin'
Don't know what she's all about
Maybe a kick's what she's lookin' for
Or just kickin' me out


PRE-CHORUS:
[FIG: 3]
 Can't seem to figure it out Just what it's about
e|------------------------|------------------------|
B|------------------------|------------------------|
G|------------------------|------------------------|
D|--------------6--6--6---|--------------6--6--6---|
A|---4--4--4----4--4--4---|---4--4--4----4--4--4---|
E|---2--2--2----4--4--4---|---2--2--2----4--4--4---|

   She'll be matter to me
e|------------------------|------------------------|
B|------------------------|------------------------|
G|------------------------|------------------------|
D|--------------6--6--6---|------------------------|
A|---4--4--4----4--4--4---|---4--4--4----4--4--4---|
E|---2--2--2----4--4--4---|---2--2--2----2--2--2---|

  I wanna answer that dare Give the woman some man
e|------------------------|------------------------|
B|------------------------|------------------------|
G|------------------------|------------------------|
D|--------------8--8--8---|--------------8--8--8---|
A|---6--6--6----6--6--6---|---6--6--6----6--6--6---|
E|---4--4--4----6--6--6---|---4--4--4----6--6--6---|

   But is she laughing at me
e|------------------------|------------------------|
B|------------------------|------------------------|
G|------------------------|------------------------|
D|--------------8--8--8---|------------------------|
A|---6--6--6----6--6--6---|---6--6--6----6--6--6---|
E|---4--4--4----6--6--6---|---4--4--4----4--4--4---|


CHORUS:
[FIG: 4]
I could wait forever
e|----------------|--9-------------|
B|--9------7---9--|--10------------|
G|--9------7---9--|--8-------------|
D|--9------7---9--|--11------------|
A|--7-------------|-------/5-------|
E|----------------|----------7~~5p0|

e|----------------|----------------|
B|--9------7---9--|--7-------------|
G|--9------7---9--|--7-------------|
D|--9------7---9--|--7-------------|
A|--7-------------|--5----/5-------|
E|----------------|----------7~~5p0|

Life would still go on
e|----------------|--9-------------|
B|--9------7---9--|--10------------|
G|--9------7---9--|--8-------------|
D|--9------7---9--|--11------------|
A|--7-------------|-------/5-------|
E|----------------|----------7~~5p0|

e|----------------|----------------|
B|--9------7---9--|--7-------------|
G|--9------7---9--|--7-------------|
D|--9------7---9--|--7-------------|
A|--7-------------|--5----/5-------|
E|----------------|----------7~~5p0|




SOLO RHYTHYM:
e|------------------------|------------------------|
B|------------------------|------------------------|
G|------------------------|------------------------|
D|-5--5--5--5-----2--4--5~|(3~)5-------------------|
A|-5--5--5--5-----0--2--3~|(3~)3--2--0--2--5--2--0-|
E|-3--3--3--3--3----------|------------------------|

e|------------------------|------------------------|
B|------------------------|------------------------|
G|------------------------|------------------------|
D|-5--5--5--5-----2--4--5~|(3~)5--------4~---------|
A|-5--5--5--5-----0--2--3~|(3~)3--2--0--2~---------|
E|-3--3--3--3--3----------|------------------------|

e|------------------------|------------------------|
B|------------------------|------------------------|
G|------------------------|------------------------|
D|-5--5--5--5-----2--4--5~|(3~)5-------------------|
A|-5--5--5--5-----0--2--3~|(3~)3--2--0--2--5--2~~--|
E|-3--3--3--3--3----------|------------------------|

e|------------------------|------------------------|
B|------------------------|------------------------|
G|------------------------|------------------------|
D|-5--5--5--5-----2--4--5~|(3~)5-------------------|
A|-5--5--5--5-----0--2--3~|(3~)3--2--0--2~-0-------|
E|-3--3--3--3--3----------|-------------------3\---|


e|------------------------|------------------------|
B|------------------------|------------------------|
G|------------------------|----------5-----------5-|
D|---------5-----------5--|----------5-----------5-|
A|---------5-----------5--|-3-3--3-3-3--3-3--3-3-3-|
E|--3--3-3-3--3-3--3-3-3--|------------------------|

e|------------------------|------------------------|
B|------------------------|------------------------|
G|------------------------|----------5------5~~~---|
D|----------5-----------5-|----------5------5~~~---|
A|----------5-----------5-|-3-3--3-3-3---3--3~~~---|
E|-3-3--3-3-3--3-3--3-3-3-|------------------------|


e|------------------------|------------------------|
B|------------------------|------------------------|
G|------------------------|----------5----------5--|
D|----------5----------5--|----------5----------5--|
A|----------5----------5--|--3-3-3-3-3--3-3-3-3-3--|
E|--3-3-3-3-3--3-3-3-3-3--|------------------------|

e|------------------------|------------------------|
B|------------------------|------------------------|
G|------------------------|----------5----5-5-5-5--|
D|----------5----------5--|----------5----5-5-5-5--|
A|----------5----------5--|--3-3-3-3-3--3-3-3-3-3--|
E|--3-3-3-3-3--3-3-3-3-3--|------------------------|

[FIG: 4]


[FIG: 2]

VERSE
[FIG: 1]

PRE-CHORUS
[FIG: 3]


CHORUS:
[FIG: 4]


OUTRO:

e|------------------------|------------------------|
B|------------------------|------------------------|
G|------------------------|------------------------|
D|------------------------|------------------------|
A|------------------------|------------------------|
E|------------------------|------------------------|

e|------------------------|------------------------|
B|------------------------|------------------------|
G|------------------------|------------------------|
D|------------------------|------------------------|
A|------------------------|------------------------|
E|------------------------|------------------------|

e|------------------------|------------------------|
B|------------------------|------------------------|
G|------------------------|------------------------|
D|------------------------|------------------------|
A|------------------------|------------------------|
E|------------------------|------------------------|

e|------------------------|------------------------|
B|------------------------|------------------------|
G|------------------------|------------------------|
D|------------------------|------------------------|
A|------------------------|------------------------|
E|------------------------|------------------------|

| /  slide up
| \  slide down
| h  hammer-on
| p  pull-off
| ~  vibrato
| +  harmonic
| x  Mute note
===============================================================================
Tap to rate this tab
# A B C D E F G H I J K L M N O P Q R S T U V W X Y Z