Song name
# A B C D E F G H I J K L M N O P Q R S T U V W X Y Z

Michael Schenker - Walk The Stage Rock Will Never Die tab

Help us improve GuitareTab! Take a short survey!
-------------------------------------------------------------------------------
	 Walk The Stage (Rock Will Never Die) - Michael Schenker Group
-------------------------------------------------------------------------------
MSG
Walk The Stage (Rock Will Never Die)
From: Built To Destroy (1983)

Tabbed by: malpka

Tuning: Standard

INTRO:
e|-------------0------|-----------0--------|
B|--------3------3----|--------3----3------|
G|------4----------2--|---------------4----|
D|----4---------------|-----4-----------4--|
A|--2--------0--------|--------------------|
E|--------------------|--3-----------------|


VERSE 1:
[FIG: 1]
  Dream on, Dream on
e|-2----------------|----------0-------|
B|-3-3--------3-----|---3--------3-----|
G|-2---4--------4---|-----4--------4---|
D|-4-----4--------4-|-------4--------4-|
A|-2--------0-------|------------------|
E|------------------|-3--------3-------|

    Your time has come
e|------------------|----------0-------|
B|---3--------3-----|---3--------3-----|
G|-----4--------4---|-----4------------|
D|-------4--------4-|-------4----------|
A|-2--------0-------|------------------|
E|------------------|-3--------3---3-2-|

   You've done the best you could because
e|---0------0-----0-|---0------0-----0-|
B|-----0------0-----|-----2------2-----|
G|-------0------0---|-------0------0---|
D|------------------|------------------|
A|------------------|-0--------0-------|
E|-0--------0-------|------------------|

   you've been gone so long
e|---2--------2-----|---2------2-----2-|
B|-----3--------3---|-----3------3-----|
G|-------2--------2-|-------3------3---|
D|-0----------------|------------------|
A|----------4-------|-2--------2-------|
E|------------------|------------------|

  Your journey's over now my friend
e|---0------0-----0-|---0------0-----0-|
B|-----0------0-----|-----2------2-----|
G|-------0------0---|-------2------2---|
D|------------------|------------------|
A|------------------|-0--------0-------|
E|-0--------0-------|------------------|


e|------------------|------------------|
B|---3--------3-----|-3------2---------|
G|-----4--------4---|-4------3---------|
D|-------4--------4-|-5------4---------|
A|-2--------0-------|------------------|
E|------------------|-3------2----2/7--|

VERSE: 2
[FIG: 1]
Do you see clear
When all appears
Your heroes may light your nights
But still it's only you they hear
So come walk the stage with me tonight

CHORUS 1:
[FIG: 2]
e|------------------------|------------------------|
B|------------------------|------------------------|
G|--2h4--4--4---4~~-\-----|----7----7------9----9--|
D|--2h4--4--4---4~~-\-----|----7----7------9----9--|
A|--0h2--2--2---2~~-\-----|--x-5--x-5----x-7--x-7--|
E|------------------------|------------------------|

Rock will never die, We've known better, you've known all your lives
Armed and ready now, Gonna rock the town


[FIG: 3]
  To see you marching in           I'm so proud
e|--------------------------------|--------------------------------|
B|--------------------------------|--------------------------------|
G|--------------------------------|--------------------------------|
D|--------------------------------|--------------------------------|
A|--2--2-2-4--4-4-5--5-5-9--9-9---|--------------------------------|
E|--------------------------------|--0--0-0-2--2-2-3--3-3-5--5-5---|

  I feel just like a king
e|--------------------------------|--------------------------------|
B|--------------------------------|--------------------------------|
G|--------------------------------|--------------------------------|
D|--------------------------------|--------------------------------|
A|--2--2-2-4--4-4-5--5-5-9--9-9---|--------------------------------|
E|--------------------------------|--0--0-0-2--2-2-3--3-3-5--5-5---|

  How many changes now, Who is who, Until we take the bow
e|--------------------------------|--------------------------------|
B|--------------------------------|--------------------------------|
G|--------------------------------|--------------------------------|
D|--------------------------------|--------------------------------|
A|--2--2-2-4--4-4-5--5-5-9--9-9---|--------------------------------|
E|--------------------------------|--0--0-0-2--2-2-3--3-3-5--5-5---|

                                   You can always count on me
e|--------------------------------|--------------------------------|
B|--------------------------------|--------------------------------|
G|--------------------------------|--------------------------------|
D|--------------------------------|--------------------------------|
A|--2--2-2-4--4-4-5--5-5-9--9-9---|--------------------------------|
E|--------------------------------|--0--0-0-2--2-2-3--3-3-5--5-5---|


e|--------------------|--------------------|
B|----3------3-----3--|--3--------2--------|
G|------4------4------|--4--------3--------|
D|--------4------4----|--5--------4--------|
A|--2--------0--------|--------------------|
E|--------------------|--3--------2--------|


VERSE 2:
[FIG: 1]
Who calls the tune
I really wonder who
Cuz you've sets your sights so high tonight
You always knew you could
No way rock could ever die
When you call the tune
A million voices cry out


SOLO:

[FIG: 2]
e|-12b14~-12-12b-12b-12b-12b-12b-12b-|-12b14-12b-12b-12b-12b-12b-12b-12b~r-10-|
B|-----------------------------------|----------------------------------------|
G|-----------------------------------|----------------------------------------|
D|-----------------------------------|----------------------------------------|
A|-----------------------------------|----------------------------------------|
E|-----------------------------------|----------------------------------------|

e|-10/12-12-12--10/12-12-12--10~~\-|-12-10-------------7h10p7h10p7---7h10p7h10p7---7h10p7h10p7---7h10p7h10-|
B|---------------------------------|-------12-10-10b12------------10------------10------------10-----------|
G|---------------------------------|-----------------------------------------------------------------------|
D|---------------------------------|-----------------------------------------------------------------------|
A|---------------------------------|-----------------------------------------------------------------------|
E|---------------------------------|-----------------------------------------------------------------------|

e|-7h10p7h10p7--7------------------------7-7-7-7-10-12-12b~-|-12r~~\------------------|
B|------------10-10-7-10-7-7------------7-------------------|-------------------------|
G|------------------------8-10-8-7-----7--------------------|-------------------------|
D|--------------------------------9-7-9---------------------|--------------9~--9~--9~-|
A|----------------------------------------------------------|-------------------------|
E|----------------------------------------------------------|-------------------------|

e|-------------------------------|----7----------------------10~-7--------|
B|-------------------------------|---7-10p7--7--------------------10-7----|
G|-----------------------7-9-7-9-|-9b------9--9-7---9-7----------------7\-|
D|-7-9-9-7-9-9-7b9-7-7b9---------|----------------9-----9-7---------------|
A|-------------------------------|----------------------------------------|
E|-------------------------------|----------------------------------------|

[FIG: 3]
e|-10~-7-------10~-7-------10~-7-------10~-7------|-10~-7-------10b-10-7-----------|
B|------10p7--------10p7--------10p7--------10p7--|------10p7-----------10b-10-7~\-|
G|----------7-----------7-----------7-----------7-|----------7---------------------|
D|------------------------------------------------|--------------------------------|
A|------------------------------------------------|--------------------------------|
E|------------------------------------------------|--------------------------------|

e|-10/12-10-7--------------------|------------------------|
B|-----------10-7-------7--------|------------------------|
G|----------------9-7-----10-9-7-|------------------------|
D|-------------------------------|-9-7--------------------|
A|-------------------------------|------9-8-7--5-5---5~---|
E|-------------------------------|------------------------|

e|---------------------------|------------------|
B|---------------------------|------------------|
G|---------------------------|------------------|
D|---------------------------|------5---5-------|
A|-5b7~--7-7-7-7-7-7-7-7--7~-|-5/7----7---5--7~-|
E|---------------------------|------------------|

e|--------------------7-9-10-|-9b10-9---9-10-12-12b14-|
B|---------------7-10--------|-------12---------------|
G|-----------7-9-------------|------------------------|
D|-------7-9-----------------|------------------------|
A|-5-7-9---------------------|------------------------|
E|---------------------------|------------------------|


VERSE 3:
[FIG: 1]
As the echoes fade
There's nothing more to say
Cuz you've set your sights so high tonight
Live for another day
The saga never seems to end
Live for another day
There's time cuz rock is here to stay!

OUTRO SOLO:

| /  slide up
| \  slide down
| h  hammer-on
| p  pull-off
| ~  vibrato
| +  harmonic
| x  Mute note
===============================================================================
Related for Walk The Stage Rock Will Never Die tab