Michael Sweet - Save Me tab

-------------------------------------------------------------------------------
			     Save Me-Michael Sweet
-------------------------------------------------------------------------------
Tabbed by:Kenneth Petersen
Email:k.pete66@yahoo.com

CD: Truth
    2000 Restless Records

    www.michaelsweet.com

Tuning: Drop D
  Intro
  Guitar 1
e|---------------------------------------------------------------------------|
B|---------------------------------------------------------------------------|
G|-------------------------------------------------------------5-5-5--------.|
D|-1-0-0-0-0-0-0-0-0-0-0-0-1-0-3-0-1-0-1-0-0-0-0-0-0-0-0-0-0-0-5-5-5--------.|
A|-1-0-0-0-0-0-0-0-0-0-0-0-1-0-3-0-1-0-1-0-0-0-0-0-0-0-0-0-0-0-3-3-3---------|
D|-1-0-0-0-0-0-0-0-0-0-0-0-1-0-3-0-1-0-1-0-0-0-0-0-0-0-0-0-0-0---------------|
 |   p.m.-----------------               p.m.-----------------               |
 |                                                                           |
 | Guitar 2 second time                                                      |                    
e|---------------------------------------------------------------------------|
B|---------------------------------------------------------------------------|
G|-14/15\14-15\14/17-15\14/15\14-15\14\-------------------------5-5-5--------|
D|-x--x--x--x--x--x--x--x--x--x--x--x-------------------------- 5-5-5--------|
A|-12/13\12-13\12/15-13\12/13\12-13\12\-------------------------3-3-3--------|
D|---------------------------------------------------------------------------|


  Verse                               
e|------------------------------------|---------|
B|------------------------------------|---------|
G|----------------------------------.-|--5-5-5--|
D|-1-0-x-x-x-x-x-x-xx-x-x-x-x-x-x-x-.-|--5-5-5--|
A|-1-0-x-x-x-x-x-x-xx-x-x-x-x-x-x-x---|--3-3-3--|
D|-1-0-x-x-x-x-x-x-xx-x-x-x-x-x-x-x---|---------|

  
  
   Guitar 1
e|---------------------------------------------------------------------------|
B|---------------------------------------------------------------------------|
G|-------------------------------------------------------------5-5-5---------|
D|-1-0-0-0-0-0-0-0-0-0-0-0-1-0-3-0-1-0-1-0-0-0-0-0-0-0-0-0-0-0-5-5-5---------|
A|-1-0-0-0-0-0-0-0-0-0-0-0-1-0-3-0-1-0-1-0-0-0-0-0-0-0-0-0-0-0-3-3-3---------|
D|-1-0-0-0-0-0-0-0-0-0-0-0-1-0-3-0-1-0-1-0-0-0-0-0-0-0-0-0-0-0---------------|
 |   p.m.-----------------               p.m.-----------------               |
 |                                                                           |
 | Guitar 2                                                                  |             
e|---------------------------------------------------------------------------|
B|---------------------------------------------------------------------------|
G|-14/15\14-15\14/17-15\14/15\14-15\14\-------------------------5-5-5--------|
D|-x--x--x--x--x--x--x--x--x--x--x--x-------------------------- 5-5-5--------|
A|-12/13\12-13\12/15-13\12/13\12-13\12\-------------------------3-3-3--------|
D|---------------------------------------------------------------------------|


  %  Chorus
e|------------------|-----------------|------------------| 
B|------------------|-----------------|------------------|
G|-3-3-3-3-3-3-3-3-.|-7-7-7-7-7-7-7-7.|-5-5-5-5-5-5-5-5-.|
D|-3-3-3-3-3-3-3-3-.|-7-7-7-7-7-7-7-7.|-5-5-5-5-5-5-5-5-.|
A|-1-1-1-1-1-1-1-1--|-5-5-5-5-5-5-5-5-|-3-3-3-3-3-3-3-3--|
D|------------------|-----------------|------------------|

    
  Guitar 1
e|------------------|--------------------------------------------------------|
B|------------------|--------------------------------------------------------|
G|-7-7-7-7-7-7-7-7-.|--------------------------------------------------------|
D|-7-7-7-7-7-7-7-7-.|--------------------------------------------------------|
A|-5-5-5-5-5-5-5-5--|--------------------------------------------------------|
D|------------------|--------------------------------------------------------|
                                                                             |
 |Guitar 2 second time                                                       |
e|---------------------------------------------------------------------------|
B|---------------------------------------------------------------------------|
G|---------------------------------------------------------------------------|
D|---------------------------------------------------------------------------|
A|-5-6-3-5 1-3 0-------------------------------------------------------------|
D|---------------------------------------------------------------------------|



   Guitar 1
e|---------------------------------------------------------------------------|
B|---------------------------------------------------------------------------|
G|-------------------------------------------------------------5-5-5---------|
D|-1-0-0-0-0-0-0-0-0-0-0-0-1-0-3-0-1-0-1-0-0-0-0-0-0-0-0-0-0-0-5-5-5---------|
A|-1-0-0-0-0-0-0-0-0-0-0-0-1-0-3-0-1-0-1-0-0-0-0-0-0-0-0-0-0-0-3-3-3---------|
D|-1-0-0-0-0-0-0-0-0-0-0-0-1-0-3-0-1-0-1-0-0-0-0-0-0-0-0-0-0-0---------------|
 |   p.m.-----------------               p.m.-----------------               |
 |                                                                           |
 |  Guitar 2                                                                 |             
e|---------------------------------------------------------------------------|
B|---------------------------------------------------------------------------|
G|-14/15\14-15\14/17-15\14/15\14-15\14\-------------------------5-5-5--------|
D|-x--x--x--x--x--x--x--x--x--x--x--x-------------------------- 5-5-5--------|
A|-12/13\12-13\12/15-13\12/13\12-13\12\-------------------------3-3-3--------|
D|---------------------------------------------------------------------------|

  Solo 1 Guitar 1
e|---------------------------------------------------------------------------|
B|---------------------------------------------------------------------------|
G|---------------------------------------------------------------------------|
D|-5-----5-5-3-5-----5-------------------------------------------------------|
A|-5-6-7-5-5-3-5-6-7-5-------------------------------------------------------|
D|-5-5-5-5-5-3-5-5-5-5-------------------------------------------------------|
 |                                                                           |
 |                                                                           |
 |Solo 1 Guitar 2 (all bends 1/2 step)                                       |
e|---------------------------------------------------------------------------|
B|------------------ 3-------------------------------------------------------|
G|-4-4-4-4br4---4-4-4--pbr4---16-16-16br16----16-16-16br16-------------------|
D|----------- 5------------ 5------------- 17------------- 17-15h17 17\------|
A|---------------------------------------------------------------------------|
D|---------------------------------------------------------------------------|


  Solo 2 Guitar 1
e|-----|---|-----|---|-----|-------------------------------------------------|
B|-----|---|-----|---|-----|-------------------------------------------------|
G|----.|---|.---.|---|.---.|-------------------------------------------------|
D|-o--.|---|.-0-.|---|.-0-.|-------------------------------------------------|
A|-0---|-1-|--0--|-2-|--0--|-1-----------------------------------------------|
D|-0---|---|--0--|---|--0--|-------------------------------------------------|
 |                                                                           |
 |                                                                           |
 |Solo 2 Guitar 2 (all bends 1/2 step)                                     % |
e|---------------------------------------------------------------------------|
B|-------------------------------10------------------------------------------|
G|.--/11-11-11-11br11----/11-11-11----pbr11-11----/11-11-11-11b11------------|
D|.------------------ 12---------------------- 12-----------------12---------|
A|---------------------------------------------------------------------------|
D|---------------------------------------------------------------------------|

e|----------------------------------|
B|----------------------------------|
G|---------------------------------.|
D|-10-10h12-12-12-10---------------.|
A|-------------------12-10-8-5-5~~--|
D|----------------------------------|



************************************

| /   slide up
| \   slide down
| h   hammer-on
| p   pull-off
| ~   vibrato
| +   harmonic
| x   Mute note
| b   Bend
| pb  Pre-bend
| br  Bend release
| pbr Pre-bend release
| brb Bend release bend
| p.m.Palm Mute

************************************
Tap to rate this tab
 
# A B C D E F G H I J K L M N O P Q R S T U V W X Y Z