Song name
# A B C D E F G H I J K L M N O P Q R S T U V W X Y Z

Michael Tolcher - Miracle tab

Miracle By Paramore
Tabbed by Amaya. ((First Tab))

Drop D Tuning ((D A D G B e))

Intro/Chorus

Guitar 1 ((Rhythm))

|----------------|------------|-----------------|------------|------------|----------|
|----------------|------------|-----------------|------------|------------|----------|
|----------------|------------|-----------------|------------|------------|----------|
|11-11--11-11-11-|-7-7--7-7-7-|-11-11--11-11-11-|-9-9--9-9-9-|-7-7--7-7-7-|-2-2-4-4--|2x
|11-11--11-11-11-|-7-7--7-7-7-|-11-11--11-11-11-|-9-9--9-9-9-|-7-7--7-7-7-|-2-2-4-4--|
|11-11--11-11-11-|-7-7--7-7-7-|-11-11--11-11-11-|-9-9--9-9-9-|-7-7--7-7-7-|-2-2-4-4--|

Guitar 2 ((Lead))

|-----------|------------|-----------|----------|-----------|-77-----------|
|-----------|--------777-|-----------|----------|-99--------|----99--------|
|-------999-|------------|-------999-|-99998888-|------6666-|--------8h9p8-|
|-666-77----|-666-77-----|-666-77----|----------|---99------|------7-------|2x
|-----------|------------|-----------|----------|-----------|--------------|
|-----------|------------|-----------|----------|-----------|--------------|


Verse
Guitar 1
Guitar 2 doesn't play in the verse.

|------------------------------------------------------------------------
|------------------------------------------------------------------------
|------------------------------------------------------------------------
|--7-7-7-7-7-7---9-9-9-9-9-9--6-6-6-6-6-6--7-7-7-7-7-7---(2x)------------
|--7-7-7-7-7-7---9-9-9-9-9-9--6-6-6-6-6-6--7-7-7-7-7-7-------------------
|--7-7-7-7-7-7---9-9-9-9-9-9--6-6-6-6-6-6--7-7-7-7-7-7-------------------
    


|---------------------------------
|---------------------------------
|---------------------------------
|--2-2-2--4-4-4-------------------
|--2-2-2--4-4-4-------------------
|--2-2-2--4-4-4-------------------

Beginning With You And I // Have I told you, have I..

Play Intro for Chorus.
Repeat The Verse.

Bridge

Guitar 1

|------------------------------------------------------------|
|------------------------------------------------------------|
|------------------------------------------------------------|
|--11-11-11-11-11-11-11-11-11-11-11-|--2-2-2-2--9-9-9-9------|
|--11-11-11-11-11-11-11-11-11-11-11-|--2-2-2-2--9-9-9-9------|
|--11-11-11-11-11-11-11-11-11-11-11-|--2-2-2-2--9-9-9-9------|

Guitar 2

|-----------------------------------|------------------------|
|-----------------------------------|------------------------|
|--13-13-13-13-13-13-13-13-13-13-13-|--9-9-9-9---------------|
|--xx-xx-xx-xx-xx-xx-xx-xx-xx-xx-xx-|--9-9-9-9--9-9-9-9------|
|--11-11-11-11-11-11-11-11-11-11-11-|--7-7-7-7--9-9-9-9------|
|-----------------------------------|-----------9-9-9-9------|
It's not faith if, it your using your   eyes, oh why..
We'll get it right this time,          Behind, oh why 
           Let's leave this all

Play Verse, then Chorus.

Finished!
Tap to rate this tab
# A B C D E F G H I J K L M N O P Q R S T U V W X Y Z